Joy Discovery Invention Bass Tab - Biffy Clyro




Intro
G:-----------------------------------------------------
D:-----------------------------------------------------
A:-----------------------------3-----------------------3x 
D:--0-------9---------3--------------------------------


Bridge
G:-----------------------------------------------------
D:-----------------------------------------------------
A:----------------------------------------------------- 1x
D:---5-7-5-7-5-9-5-------------------------------------

G:-----------------------------------------------------
D:-----------------------------------------------------
A:----------------------------------------------------- 2x
D:-0-0-0-0-0-0-0-3-3-3-3-3-3-3-------------------------

G:-----------------------------------------------------
D:-----------------------------------------------------
A:----------------------------------------------------- 1x
D:---5-7-5-7-5-9-5-------------------------------------

G:-----------------------------------------------------
D:-----------------------------------------------------
A:----------------------------------------------------- 2x
D:-0-0-0-0-0-0-0-3-3-3-3-3-3-3-------------------------


Verse
G:-----------------------------------------------------
D:-----------------------------------------------------
A:-----------------------------3-----------------------x5 
D:--0-------9---------3--------------------------------


Bridge
G:-----------------------------------------------------
D:-----------------------------------------------------
A:----------------------------------------------------- 1x
D:---5-7-5-7-5-9-5-------------------------------------

G:-----------------------------------------------------
D:-----------------------------------------------------
A:----------------------------------------------------- 2x
D:-0-0-0-0-0-0-0-2-2-2-2-2-2-2-------------------------


G:-----------------------------------------------------
D:-----------------------------------------------------
A:----------------------------------------------------- 1x
D:---5-7-5-7-5-9-5-------------------------------------

G:-----------------------------------------------------
D:-----------------------------------------------------
A:----------------------------------------------------- 2x
D:-0-0-0-0-0-0-0-2-2-2-2-2-2-2-------------------------


middel
G:-----------------------------------------------------
D:-guitar----------------------------------------------
A:-----------------------------------------------------x1 
D:----------5/--2-2----2-2--7-7-2-3-3------------------

G:-----------------------------------------------------
D:-----------------------------------------------------x4
A:----------------------------------------------------- 
D:-10-10-9-9--5/--2-2----2-2--7-7-2-3-3----------------

chorus
G:-----------------------------------------------------
D:-----------------------------------------------------
A:-----------------------------------------------------
D:-5-5-5-5-5-5-2-2-2-4-4-4-0-0-0-0-0-0-0-0-2-2-2-2-2-2-2-2-2-0-0-0-0...

middel
G:-----------------------------------------------------
D:-guitar----------------------------------------------
A:-----------------------------------------------------till the end 
D:----------5/--2-2----2-2--7-7-2-3-3------------------

outro
G:-----------------------------------------------------
D:-----------------------------------------------------x1
A:-----------------------------------------------------
D:-5-2-2-4-4-0-0-0-0-0-0-0-2-2-2-2-2-2-2-0-0-0-0-0-0-0--2-2-2-2-2-2-2...


look at slow motion asleep at the door
next to destruction, reach for the source

get up, get up, get over,
take me to your blackened sky
get up, get up, get over,
take me to your blackened sky

sink with your wasted dreams when you can
find time to console them, become what i am
if you submit to all the hopes you've made
down through your heart

get up, get up, get over,
take me to your blackened sky
get up, get up, get over,
take me to your blackened sky

pass away, i hope you don't mind
watch the letters send, to see this through

if you wanna get it, go and break my heart
take me to your blackened sky
if you wanna get it, go and break my heart
take me to your blackened sky

if you wanna get it, go and break my heart
take me to your blackened sky
ĂŽnscrie-te la newsletter


Join the ranks ! LIKE us on Facebook