The Captain Tab - Biffy Clyro




Not sure about the bridge, but I think the rest sounds right.

Intro

d|---------------------------|
A|---------------------------|
F|---------------------------|
C|---15-14-13-12-11-10---0---|
G|---15-14-13-12-11-10---0---|
C|---15-14-13-12-11-10---0---|

d|----------------------------------------------------------------------------------------|
A|----------------------------------------------------------------------------------------|
F|----------------------------------------------------------------------------------------|
C|---12--0--0---12--0--0---12--0--0---3-----12--0--0---12--0--0---12--0--0---15--14--13---|
G|---12--0--0---12--0--0---12--0--0---3-----12--0--0---12--0--0---12--0--0---15--14--13---|
C|---12--0--0---12--0--0---12--0--0---3-----12--0--0---12--0--0---12--0--0---15--14--13---|

d|-----------------------------------------------------------------------------------------|
A|-----------------------------------------------------------------------------------------|
F|-----------------------------------------------------------------------------------------|
C|---12--0--0---12--0--0---12--0--0---3-----12--0--0---12--0--0---15--14--13--12--11--10---|
G|---12--0--0---12--0--0---12--0--0---3-----12--0--0---12--0--0---15--14--13--12--11--10---|
C|---12--0--0---12--0--0---12--0--0---3-----12--0--0---12--0--0---15--14--13--12--11--10---|

d|-----------------------|
A|-----------------------|
F|-----------------------|
C|---0----0----5----7/---|
G|---0----0----5----7/---|
C|---0----0----5----7/---|

Verse

d|---------------------------------------------------------------------------|
A|---------------------------------------------------------------------------|
F|---------------------------------------------------------------------------|  x4
C|---------------------------------------------------------------------------|
G|---------------------------------------------------------------------------|
C|---12--0--0---12--0--0---12--0--0---12--0--0---5-5-5-5-5-5---7-7-7-7-7-7---|

Pre-chorus

d|----------------------------------------------------------------------------|
A|------7-----7-----7-----8-----8-----8-----7-----7-----7-----5-----5-----5---|
F|---7-----7-----7-----7-----7-----7-----7-----7-----7-----7-----7-----7------|
C|----------------------------------------------------------------------------|
G|----------------------------------------------------------------------------|
C|----------------------------------------------------------------------------|

d|------------------------------------------------------------------------------|
A|------7-----7-----7-----8-----8-----8-----7-----7-----7---5--5--5--5--5--5----|
F|---7-----7-----7-----7-----7-----7-----7-----7-----7------7b-7b-7b-7b-7b-7b---|
C|------------------------------------------------------------------------------|
G|------------------------------------------------------------------------------|
C|------------------------------------------------------------------------------|

Chorus

d|-----------------------------------------------------------------------------|
A|-----------------------------------------------------------------------------|
F|-----------------------------------------------------------------------------|
C|---0--0--0--0--0--0--0--0--0--0--0--0---7--7--7--7--7--7--7--7--7--7--7--7---|
G|---0--0--0--0--0--0--0--0--0--0--0--0---7--7--7--7--7--7--7--7--7--7--7--7---|
C|---0--0--0--0--0--0--0--0--0--0--0--0---7--7--7--7--7--7--7--7--7--7--7--7---|
                                                                                   x2
d|-----------------------------------------------------------------------------|
A|-----------------------------------------------------------------------------|
F|-----------------------------------------------------------------------------|
C|---9--9--9--9--9--9--9--9--9--9--9--9---7--7--7--7--7--7--7--7--7--7--7--7---|
G|---9--9--9--9--9--9--9--9--9--9--9--9---7--7--7--7--7--7--7--7--7--7--7--7---|
C|---9--9--9--9--9--9--9--9--9--9--9--9---7--7--7--7--7--7--7--7--7--7--7--7---|

Bridge

d|---------------------------------------------------------------------------|
A|---------------------------------------------------------------------------|
F|---------------------------------------------------------------------------|  x2
C|---12--0--0---12--0--0---12--0--0---12--0--0---5-5-5-5-5-5---7-7-7-7-7-7---|
G|---12--0--0---12--0--0---12--0--0---12--0--0---5-5-5-5-5-5---7-7-7-7-7-7---|
C|---12--0--0---12--0--0---12--0--0---12--0--0---5-5-5-5-5-5---7-7-7-7-7-7---|

Verse

d|---------------------------------------------------------------------------|
A|---------------------------------------------------------------------------|
F|---------------------------------------------------------------------------|  x4
C|---12--0--0---12--0--0---12--0--0---12--0--0---5-5-5-5-5-5---7-7-7-7-7-7---|
G|---12--0--0---12--0--0---12--0--0---12--0--0---5-5-5-5-5-5---7-7-7-7-7-7---|
C|---12--0--0---12--0--0---12--0--0---12--0--0---5-5-5-5-5-5---7-7-7-7-7-7---|

Pre-chorus

d|----------------------------------------------------------------------------|
A|------7-----7-----7-----8-----8-----8-----7-----7-----7-----5-----5-----5---|
F|---7-----7-----7-----7-----7-----7-----7-----7-----7-----7-----7-----7------|
C|----------------------------------------------------------------------------|
G|----------------------------------------------------------------------------|
C|----------------------------------------------------------------------------|

d|------------------------------------------------------------------------------|
A|------7-----7-----7-----8-----8-----8-----7-----7-----7---5--5--5--5--5--5----|
F|---7-----7-----7-----7-----7-----7-----7-----7-----7------7b-7b-7b-7b-7b-7b---|
C|------------------------------------------------------------------------------|
G|------------------------------------------------------------------------------|
C|------------------------------------------------------------------------------|

Chorus

d|-----------------------------------------------------------------------------|
A|-----------------------------------------------------------------------------|
F|-----------------------------------------------------------------------------|
C|---0--0--0--0--0--0--0--0--0--0--0--0---7--7--7--7--7--7--7--7--7--7--7--7---|
G|---0--0--0--0--0--0--0--0--0--0--0--0---7--7--7--7--7--7--7--7--7--7--7--7---|
C|---0--0--0--0--0--0--0--0--0--0--0--0---7--7--7--7--7--7--7--7--7--7--7--7---|
                                                                                   x2
d|-----------------------------------------------------------------------------|
A|-----------------------------------------------------------------------------|
F|-----------------------------------------------------------------------------|
C|---9--9--9--9--9--9--9--9--9--9--9--9---7--7--7--7--7--7--7--7--7--7--7--7---|
G|---9--9--9--9--9--9--9--9--9--9--9--9---7--7--7--7--7--7--7--7--7--7--7--7---|
C|---9--9--9--9--9--9--9--9--9--9--9--9---7--7--7--7--7--7--7--7--7--7--7--7---|

Outro

d|-----------------------------------------------------------------------------|
A|-----------------------------------------------------------------------------|
F|-----------------------------------------------------------------------------|
C|---0--0--0--0--0--0--0--0--0--0--0--0---7--7--7--7--7--7--7--7--7--7--7--7---|
G|---0--0--0--0--0--0--0--0--0--0--0--0---7--7--7--7--7--7--7--7--7--7--7--7---|
C|---0--0--0--0--0--0--0--0--0--0--0--0---7--7--7--7--7--7--7--7--7--7--7--7---|
                                                                                  x3
d|-----------------------------------------------------------------------------|
A|-----------------------------------------------------------------------------|
F|-----------------------------------------------------------------------------|
C|---9--9--9--9--9--9--9--9--9--9--9--9---7--7--7--7--7--7--7----5--5---5--5---|
G|---9--9--9--9--9--9--9--9--9--9--9--9---7--7--7--7--7--7--7----5--5---5--5---|
C|---9--9--9--9--9--9--9--9--9--9--9--9---7--7--7--7--7--7--7----5--5---5--5---|

d|----------------------------------------------------------------------------------------|
A|----------------------------------------------------------------------------------------|
F|----------------------------------------------------------------------------------------|
C|---12--0--0---12--0--0---12--0--0---3-----12--0--0---12--0--0---12--0--0---15--14--13---|
G|---12--0--0---12--0--0---12--0--0---3-----12--0--0---12--0--0---12--0--0---15--14--13---|
C|---12--0--0---12--0--0---12--0--0---3-----12--0--0---12--0--0---12--0--0---15--14--13---|

d|-----------------------------------------------------------------------------------|
A|-----------------------------------------------------------------------------------|
F|-----------------------------------------------------------------------------------|
C|---12--0--0---12--0--0---12--0--0---3-----12--0--0---12--0--0---12---0----0----3---|
G|---12--0--0---12--0--0---12--0--0---3-----12--0--0---12--0--0---12---0----0----3---|
C|---12--0--0---12--0--0---12--0--0---3-----12--0--0---12--0--0---12---0----0----3---|

ĂŽnscrie-te la newsletter

Join the ranks ! LIKE us on Facebook