There Is No Such Thing As A Jaggy Snake Tab - Biffy Clyro




There Is No Such Thing As A Jaggy Snake

ok, this is my first tab, so forgive me if im wrong!!
This is from biffs newest album infinity land
enjoy!

e]---------------------------------------------------|
b]------10-11-10---------------------4---------------|
g]-10-11--------11-10-8-5-5-5--3-5-6---6-5-3p0-2-2-2-|
d]---------------------------------------------------|
a]---------------------------------------------------|
d]---------------------------------------------------|

e]---------------------------------------------------|
b]------10-11-10---------------------4---------------|
g]-10-11--------11-10-8-5-5-5--3-5-6---6-5-3p0-------|
d]---------------------------------------------------|
a]---------------------------------------------------|
D]---------------------------------------------------|

Intro Part 2

e]---------------------------------------------------|
b]---------------------5-----------------------------|
g]-----------------3-4-------------------4-4-4-------|
d]--0-0--5-5-5-5-5-------5-5--5-5-5-5-5--3-3-3-------|
a]--0-0--3-3-3-3-3-------3-3--3-3-3-3-3--4-4-4-------|
D]--0-0--3-3-3-3-3-------3-3--3-3-3-3-3--------------|

e]---------------------------------------------------|
b]---------------------5-----------------------------|
g]-----------------3-4-------------------4-4-4-------|
d]--5-5--5-5-5-5-5-------5-5--5-5-5-5-5--3-3-3-------|
a]--3-3--3-3-3-3-3-------3-3--3-3-3-3-3--4-4-4-------|
D]--3-3--3-3-3-3-3-------3-3--3-3-3-3-3--------------|

Verse 1

e]----------------------------------------------------------------|
b]----------------------------------------------------------------|
g]-7-7---7-5-5--5-5--------------5-5-5-5-5-5-5-5--6-6-6-6-6-6-6-6-|
d]-5-5-------0--3-3----2-3-4-4---5-5-5-5-5-5-5-5--6-6-6-6-6-6-6-6-|
a]-5-5---5-3-0--3-3----2-3-4-4---3-3-3-3-3-3-3-3--4-4-4-4-4-4-4-4-| x2
d]-0-0---0-0-0--3-3----2-3-4-4------------------------------------|

Back to Intro Part 2
        Verse

Last time on the second time playing verse 1

e]-------------------------------------|
b]-------------------------------------|
g]-5-5-5-5-5-5-5-5-5-------------------|
d]-5-5-5-5-5-5-5-5-5--5-5-5-5-5-5-5-5--|
a]-3-3-3-3-3-3-3-3-3--5-5-5-5-5-5-5-5--|
d]--------------------5-5-5-5-5-5-5-5--|

e]------------------|
b]------------------|
g]-5-5-5---7-7-7----|
d]-5-5-5---7-7-7----|
a]-3-3-3---5-5-5----|
d]------------------|

e]---------------------------------------------------|
b]------10-11-10---------------------4---------------|
g]-10-11--------11-10-8-5-5-5--3-5-6---6-5-3p0-------|
d]---------------------------------------------7-7-7-|
a]----------------------3-3-3------------------5-5-5-|
d]---------------------------------------------------|

e]---------------------------------------------------|
b]------10-11-10---------------------4---------------|
g]-10-11--------11-10-8-5-5-5--3-5-6---6-5-3p0-------|
d]---------------------------------------------------|
a]----------------------3-3-3------------------------|
d]---------------------------------------------------|

e]---------------------------------------------------|
b]---------------------------------------------------|
g]---------------------------------------------------|
d]-7-7-7-7---7-7-7-7------7-7-7-7------7-7-7-7-------|
a]-5-5-5-5---5-5-5-5-(x4)-5-5-5-5-(x4)-5-5-5-5-(x4)--|
d]-0-0-0-0---5-5-5-5------0-0-0-0------5-5-5-5-------|

Verse 3

e]------------|
b]--11-10-----|
g]-------12---|
d]------------|
a]------------| x8
d]------------|

e]------------|
b]------------|
g]------------|
d]------------|
a]------------| x4
d]--20/19--0--|

Repeat x3

e]--------------------------------------------------------|
b]--------------------------------------------------------|
g]--7-------6-6-10-12--10-10-10-10------10-10-10-10-------|
d]--5-(x12)-5-5--------10-10-10-10-(x2)-10-10-10-10-(x2)--|
a]--5-------5-5-8--10--8--8--8--8-------8--8--8--8--------|
d]--5-------5-5-------------------------8--8--8--8--------|

Repeat Verse 3 Once

Verse 4

e]------------------------|
b]------------------------|
g]3-2-0-(x8)-3-2---(x4)---|
d]---------------0--------|
a]------------------------|
d]------------------------|

Back to Verse 3
        Chorus

Bridge Part 1

e]----------------------------------------|
b]----------------------------------------|
g]------9-9------9/10------9-9------9/10--|
d]-0-0-------00-------0-0-------00--------|
a]-0-0--7-7--00--7/8--0-0--7-7--00--7/8---|
d]-0-0-------00-------0-0-------00--------|

e]----------------------------------------|
b]------8-8------8-10------8-8------8-10--|
g]------0-0------0/0-------0-0------0/0---|
d]-0-0-------00-------0-0-------00--------|
a]-0-0--7-7--00--7/8--0-0--7-7--00--7/8---|
d]-0-0-------00-------0-0-------00--------|

Bridge Part 2

e]------------------------------------|
b]-----5------5/6-----5------5/6------|
g]-----5------5-------5------5--------|
d]------------------------------------|
a]-----5------5-------5------5--------| x2
d]-000---0000-----000---0000----------|

e]-----------------------------------|
b]-----5------5---5-555-----5--------|
g]-----0------0---0-000-----0--------|
d]-----3------3---3-333-----3--------|
a]-----------------------------------| x2
d]-000---0-0------------000----------|

e]-0--0-0--0-0-0-0-0-0--------------------------------------|
b]-5--5-5--5-5-5-5-6-5------5--5-5--5-5-5-5-5-5-------------|
g]-5--5-5--5-5-5-5-5-5------0--0-0--0-0-0-0-0-0-------------|
d]---------------------(x4)-3--3-3--3-3-3-3-3-3--(x4)-------|
a]-5--5-5--5-5-5-5-5-5------0--0-0--0-0-0-0-0-0-------------|
d]----------------------------------------------------------|

Outro Part

e]-0--0-0--0-0--0------------------------|
b]-5--5-5--5-5--5------------------------|
g]-5--5-5--5-5--5--5-5-5-5-5-5-5-5-------|
d]-0--0-0--0-0--0--3-3-3-3-3-3-3-3-------|
a]-0--0-0--0-0--0--3-3-3-3-3-3-3-3-------|
d]-0--0-0--0-0--0--3-3-3-3-3-3-3-3-------|

e]----------------------------------------|
b]-5-5-5-5-5-5-5-5------------------------|
g]-0-0-0-0-0-0-0-0--7-7-7-7-7-7-7-7-------|
d]-3-3-3-3-3-3-3-3--5-5-5-5-5-5-5-5-------|
a]-0-0-0-0-0-0-0-0--5-5-5-5-5-5-5-5-------|
d]------------------5-5-5-5-5-5-5-5-------|

e]------20b----|
b]-------------|
g]-------------|
d]-------------|
a]-------------|
d]--15b--------|

e]--------------------------------------------------------|
b]--------------------------------------------------------|
g]----------------9------9-9-------9-9---------9-9--------|
d]--------------------------------------------------------|
a]--0---0-0---0-0-7--0-0-7-7---0-0-7-7-0---0-0-7-7-0-0----|
d]--0---0-0---0-0----0-0-------0-0-----0---0-0-----0-0----|

e]-----------------------------------|
b]-----------------------------------|
g]------9-9-----9-------9-9-----10---|
d]-----------------------------------|
a]--0-0-7-7-0-0-7---0-0-7-7-0-0-8----|
d]--0-0-----0-0-----0-0-----0-0------|


Lyrics

Look up.
C-c-c-c-c-c-captain christ says,
You think to much about the wrong thing.
You sing about the wrong things.
Take extra special care.

Simply put you're a f**k up
Take extra special care.
You think too much about the wrong things.
You sing about the wrong things.

Take extra special care.
Take extra special.
Take extra special.

Take on the world at their own game.
You might succeed and win again.

Ribs break, souls stay bare.
Your forked stare cuts through.
You twist, you turn,
Wrapping around me, wrapping around me.
Now, so tight.
Squeezing the life from me.

Ribs break, souls stay bare.
Your forked stare cuts through.
You twist, you turn,
Wrapping around me, wrapping around me.
Now, so tight.
Squeezing the life from me.
You twist, you turn,
Wrapping around me, wrapping around me.
Now, so tight.
Squeezing the life from me.

You're facing a pointless task,
But its the same thing and its the same thing,
I will face the task.

Buy Infinity Land NOW!

ĂŽnscrie-te la newsletter

Join the ranks ! LIKE us on Facebook