Better Days Bass Tab - Biohazard




Tuning: D,G,C,F     Biohazard rulez!!!

Better days by Biohazard
tabbed by skipper

Intro and Verse:

         
F|---------------------------------------------|
C|---------------------------------------------|
G|-0-5-7-----0-5-7-----0-5-7-----8-6-----------|
D|-------666-------666-------666-----7--6-7-8--|

Then: (o:23)
It`s plained to me...


F|----------------------------------|
C|----------------------------------|
G|-55555-88888-0-5-7-----0-5-7------|
D|-------------------666-------666--|

Breakdown: (1:14)


F|----------------------------------------------|
C|----------------------------------------------|
G|----------------------------------------------|
D|-0000000-5-53-6-63-553-6663-5-53-667-50000000-|

Ending:


F|----------------------------------------------|
C|----------------------------------------------|
G|----------------------------------------------|
D|-5-53-6-63-553-6663-5-53-667-50000-00---------|


Thats all!!!

ĂŽnscrie-te la newsletter


Join the ranks ! LIKE us on Facebook