Tears Of Blood Bass Tab - Biohazard




Tune Down for this song!

D#||------------------|------------------|------------------|------------------|
A#||------------------|------------------|------------------|------------------|
F ||------------------|------------------|------------------|------------------|
C ||------------------|------------------|------------------|------------------|


                                        2x                                      
|-------------------|-------------------||------------------|------------------|
|*------------------|------------------*||------------------|------------------|
|*------------------|------------------*||------------------|------------------|
|-------------------|-------------------||------------------|------------------|


                                                                            
------------------|------------------|------------------|------------------|
------------------|------------------|------------------|------------------|
------------------|------------------|------------------|------------------|
------------------|------------------|------------------|------------------|


                                                                                
|-------------------|------------------|------------------|-------------------||
|*------------------|------------------|------------------|------------------*||
|*------------------|------------------|------------------|------------------*||
|-------------------|------------------|------------------|-------------------||


                                                                         
-----------------------|------------------------|-----------------------|
-----------------------|------------------------|-----------------------|
-------7---------------|-------7----------------|-------7---------------|
--0-------8----7---5---|--0-------8---7---3--2--|--0-------8----7---5---|


                                                                             
---------------------------|-----------------------|------------------------|
---------------------------|-----------------------|------------------------|
---------------------------|-------7---------------|-------7----------------|
--3---3---3---8-8-8-8-8-7--|--0-------8----7---5---|--0-------8---7---3--2--|


                                                                       
-----------------------|---------------------------|------------------|
-----------------------|---------------------------|------------------|
-------7---------------|---------------------------|------------------|
--0-------8----7---5---|--3---3---3---8-8-8-8-8-7--|------------------|


                                                         
------------------|------------------|------------------|
------------------|------------------|------------------|
------------------|------------------|------------------|
------------------|------------------|------------------|


                                                                         
-----------------------|------------------------|-----------------------|
-----------------------|------------------------|-----------------------|
-------7---------------|-------7----------------|-------7---------------|
--0-------8----7---5---|--0-------8---7---3--2--|--0-------8----7---5---|


                                                                             
---------------------------|-----------------------|------------------------|
---------------------------|-----------------------|------------------------|
---------------------------|-------7---------------|-------7----------------|
--3---3---3---8-8-8-8-8-7--|--0-------8----7---5---|--0-------8---7---3--2--|


                                                                       
-----------------------|---------------------------|------------------|
-----------------------|---------------------------|------------------|
-------7---------------|---------------------------|------------------|
--0-------8----7---5---|--3---3---3---8-8-8-8-8-7--|------------------|

ĂŽnscrie-te la newsletter


Join the ranks ! LIKE us on Facebook