Fault Line Tab - Black Rebel Motorcycle Club






Fault Line
I'm not sure about the lyrics, but I wanted to try and tab this.
There might be second guitar playing few notes.


Intro and verse
e|------------2--------------------------------- repeat-----------------------|
B|-------3--------------------------3----------- repeat-----------------------|
G|-----------------------------0-----------------repeat-----------------------|
D|---0-----------------0/3-----------------------repeat-----------------------|
A|---------------------------------------------- repeat ----------------------|
E|---------------------------------------------- repeat ----------------------|

Chorus
e|----------3--------------------------------------3--------------------------|
B|----------------1------------------1-----------------3----------------------|
G|------------------------------0-------------------------------------0-------|
D|----------------------0/2---------------------------------------0-----------|
A|--3-------------------------------------------------------0/2---------------|
E|------------------------------------------3---------------------------------|


e|------------2--------------------------------- repeat-----------------------|
B|-------3--------------------------3----------- repeat-----------------------|
G|-----------------------------0-----------------repeat-----------------------|
D|---0-----------------0/3-----------------------repeat-----------------------|
A|---------------------------------------------- repeat ----------------------|
E|---------------------------------------------- repeat ----------------------|

Outro

e|---------0--------------------------------3---------------------------------|
B|-------------1--------------1------------------1-------------1--------------|
G|-----------------------2---------------------------------0------------------|
D|--------------- 0/2-------------------------------0/2-----------------------|
A|--0--------------------------------3----------------------------------------|
E|----------------------------------------------------------------------------|

e|---------3---------------------------2--------------------------------------|
B|--------------3--------------------------3------------3---------------------|
G|----------------------------0-----------------------0-----------------------|
D|-----------------------0---------0----------0/3-----------------------------|
A|-----------------0/2------------------------------ -------------------------|
E|---3-------------------------------------------- ---------------------------|

                                     

D
I've been waitin on the fault line
Let  the needle take me on
I've been standing with mine dying bird
If you get it come along

C                      G                       D
Risen with her eyes and tied to my father's door
Risen with her eyes and tied to my father's door

D
I've been lying in the bright light
Seeing my shadow from below
Never wanted from another man
Never wanted from my own

C                          G                    D
Drowning in her eyes and tied to my father's door
Drowning in her eyes and tied to my father's door

D
Harmonica solo

D
Through a window to the last mile
Laid a picture on a wall
From the banks on the far side
See the lights come on shore

C                     G                        D
Risen with her eyes and tied to my father's door
Risen with her eyes and tied to my father's door
Risen with her eyes and tied to my father's door


Outro Am C G D






Like us on Facebook