Weapon Of Choice Tab - Black Rebel Motorcycle Club






Standard tuning, capo on 1st fret.

Intro
|--------------------------------|--------------------------------|
|--------------------------------|--------------------------------|
|1-1-1---1-1---1-1-1---1-1---1-1-|1---1-1-----4-4---6-6-----------|
|2-2-2---2-2---2-2-2---2-2---2-2-|2---2-2-----5-5---7-7-----------|
|2-2-2---2-2---2-2-2---2-2---2-2-|2---2-2-----5-5---7-7-----------|
|--3-------------3-------------3-|------------3-3---5-5-----------|
 

Chorus
 |       |       |       |        |       |       |       |        
|--------------------------------|--------------------------------|
|--------------------------------|--------------------------------|
|7-----------1-------------------|--------------------------------|
|7---7---5---2-------------------|--------------------------------|
|5---7---5---2-------------------|--------------------------------|
|----5---3-----------------------|--------------------------------|

I'm still working on the electric guitar bits, hoping to get those up soon.
anyway, this is the basis of the song.






Like us on Facebook