Spiral Architect Intro Tab - Black Sabbath






hey, my names ray, okay, iommi has his acoustic tuned down one whole step

DGCFAD

---------0-----------0-----------0-----------0-----------0---------|
-------6---6-------6---6-------6---6-------6---6-------8---8-------|
-----7-------7---7-------7---7-------7---7-------7---9-------9---9-|
---0-----------0-----------0-----------0-----------0-----------0---|
-------------------------------------------------------------------|
-------------------------------------------------------------------|

let it ring throughout

-----0-----------0-----------0-----------8-----------8-----------8-|
---8---8-------8---8-------8---8-------6---6-------6---6-------6---|
---------9---9-------9---9-------9---7-------7---7-------7---7-----|
-----------0-----------0-----------0-----------0-----------0-------|
-------------------------------------------------------------------|
-------------------------------------------------------------------|


------------8-------------------------------------------------------|
--6-------6---6----------0-----------0----------0-----------0-------|
----7---7-------7------6---6-------4---6-------6--6-------4---4-----|
------0--------------7-------7---5-------7---7------7---5-------5---|
-------------------0-----------0-----------0----------0-----------0-|
--------------------------------------------------------------------|


----------------------------------------------------------|
------0-----------0-----------0-----------0---------------|
----6---6-------4---4-------6---6-------4---4-------------|
--7-------7---5-------5---7-------7---5-------5-----------|
------------0-----------0-----------0-----------0---------|
----------------------------------------------------------|

thats it for now, Ill get back to you on the rest, remember, Its tuned down one whole 
Have fun, listen to the song to learn the rythm.Good luck

ray

randy rhoads rest in peace.






Like us on Facebook