Supernaut (ver2) Tab - Black Sabbath






Band-Black sabbath
Song-Supernaut
tabbed by godsmackthatkid

Riff 1
Repeat first 4 bars - G bar chord
e|----------------|----------------|----------------|
B|----------------|----------------|----------------|
G|----------------|----------------|----------------|
D|----------------|----------------|------------5---|
A|5--55---3-5-5---|5-5-5p3--3--33--|5--55---3-5-----|
E|------3---------|-------3--------|------3---------|

e|----------------|----------------|----------------|
B|----------------|----------------|----------------|
G|----------------|----------------|----------------|
D|----3---5-5-3---|----------------|----------------|
A|------3------5-3|5---------------|----------------|
E|----------------|----------------|----------------|
                   Before drum solo
Verse riff
  D                C
e|----------------|----------------|
B|----------------|----------------|
G|7-------------5|---55-5---55-5-7|
D|7-------------3|---55-5---55-5-7|
A|5-------------3|------3------3-5|
E|----------------|----------------|
         Bass

I want to reach out and touch the sky
I want to touch the sun but I don't need to fly
I'm gonna climb up every mountain of the moon
And find the dish that ran away with the spoon

Riff 1
Verse Riff

I've crossed the ocean, turned every bend
I found the crossing at a golden rainbows end
I've been through magic and through life's reality
I've lived a thousand years and it never bothered me

Riff 1
Drum solo
Verse riff

Got no religion, don't need no friends
Got all I want and I don't need to pretend
Don't try to reach me 'cause I'll tear up your mind
I've seen the future and I've left it behind

Riff 1
*****






Like us on Facebook