Supernaut (ver5) Tab - Black Sabbath






black sabbath
supernaut
thelordofguitar
|---------------------------------------------------------------------|
|---------------------------------------------------------------------|
|---------------------------------------------------------------------|
|-----------------------------------------------------------5/7~~-----|
|--5/7-7-7p5---5-7-7~~--5/7-7-7p5---5~~-----5/7-7-7p5---5-7-----------|
|------------5--------------------5-------5-----------5---------------|


|------------------||------------------------------------------|
|------------------||--5---------------------------------------|
|------------------||--7----------------------7----7---7----7--|
|--75---7-7-75---||--6----------------------7----7-5-7----7--|
|------5---------5-||--7---------------------------------------|
|------------------||---------0-/-12-0-/12-0-------------------|
(slide up + down)(listen to song)

Solo: trill:
|--12--12---121512--121512---121512-121512------12151215--|
|--15^-15^--------12------12---------------1512-----------|
|---------------------------------------------------------|
|---------------------------------------------------------|
|---------------------------------------------------------|
|---------------------------------------------------------|


|-17^---15-121512----12-12-12----------------------------------------|
|-----------------15-------------17-12-15-121512------trill:---------|
|-------------------------------9/---------------1412-14121412--------|
|---------------------------------------------------------------------|
|---------------------------------------------------------------------|
|---------------------------------------------------------------------|


|-----------------------------------------------------------------------------|
|-----------------------------------------------------------------------------|
|-14^-------12-14-14-1412---------------trill:--------------------------------|
|--------14---------------14-1412------12141214-----1412----------------------|
|---------------------------------14---------------------12-12p10---10121012--|
|-----------------------------------------------------------------12----------|

trills:
|-----------------------------12----12---------------------15t12------------------|
|--------------------------------15^--15^--^--15^--^^^^^^-------15t12-------------|
|-------12--121412-1412----14^---------------------------------------15t12--------|
|-121412--14-----------14--------------------------------------------------15t12--|
|---------------------------------------------------------------------------------|
|---------------------------------------------------------------------------------|


|--------------------------------------------------------------------------|
|--------------------------------------------------------------------------|
|----------14t12^^^^^^^^^^^^^^-------14^14^14^14^14^14^14^14^14^14^14^14^--|
|-14t12--------------------------------------------------------------------|
|--------------------------------------------------------------------------|
|--------------------------------------------------------------------------|


|------------------------------------------------||--------------12--------|
|-15----12-15----12-15----12-15-----and so on...-||-----12-12-15^--1512----|
|----14-------14-------14^------14^--------------||-14^----------------14--|
|------------------------------------------------||------------------------|
|------------------------------------------------||------------------------|
|------------------------------------------------||------------------------|


|----------------15^-15-1512----12-----12-12----------------------|
|-------------12-------------15----15^-------15-12----------------|
|-1412----14^--------------------------------------1512-----------|
|------14-----------------------------------------------14--14---|
|-----------------------------------------------------------------|
|-----------------------------------------------------------------|






Like us on Facebook