Supernaut Tab - Black Sabbath






##-----------------------------PLEASE NOTE-------------------------------##
          This file is the author's own work and represents 
          their interpretation of the song. You may only use 
         this file for private study, scholarship, or research. 
##-----------------------------------------------------------------------##

Tabbed by Charles Benagh (CCBenagh@hotmail.com)

Artist: Black Sabbath
Title: Supernaut
Album: Black Sabbath, Vol. 4

Equipment: Gibson SG ---> Dallas Rangemaster Treble Boost ---> Laney Stack

Legend:  p - pull off
         h - hammer on
         ^ - bend note
         ~ - vibrato
    / or  - slide up or down
      t(#) - trill



*Iommi tuned down to Db for this song, but this tab is written in E

Riff 1
e-|----------------------------------------------------------------------|
B-|*---------------------------------------------------------------------|
G-|----------------------------------------------------------------------|
D-|----------------------------------------------------------------------|
A-|*--/4---4-4p2-----2---4---4~------/4---4---4p2-----2~-----------------|
E-|--------------2--------------------------------2------------------2---|

e-|----------------------------------------------------------------------|
B-|---------------------------------------------------------------------*|
G-|----------------------------------------------------------------------|
D-|--------------------------/4~-----4p2------4---4---4p2----------------|
A-|---/4---4-4p2-----2---4----------------2----------------2------------*|
E-|--------------2-------------------------------------------------------|

Riff 2
e-|-----------------------------------------|
B-|*---------------------------------------*|
G-|---6------4-----4--4--4----4--4--6-----|
D-|---6------4-----4--2--4----4--2--6-----|
A-|*--4------2-----2--2--2----2--2--4----*|
E-|-----------------------------------------|

Solo
e-|----------------------------------------------------------------------|
B-|--(14)---(14)----------14t(17)--14t(17)--14t(17)--14t(17)---14t(17)---|
G-|---16^18--16^18--------------(16)-----(16)-----(16)-----(16)----------|
D-|----------------------------------------------------------------------|
A-|----------------------------------------------------------------------|
E-|----------------------------------------------------------------------|

e-|----------------------------------------------------------------------|
B-|---14t(17)--14t(17)--14t(17)--14t(17)----18^20---17---14h17p14-----14-|
G-|----------------------------------------------------------------16----|
D-|----------------------------------------------------------------------|
A-|----------------------------------------------------------------------|
E-|----------------------------------------------------------------------|

e-|----------------------------------------------------------------------|
B-|--14--------/12--9--12--9t(12)----------------------------------------|
G-|--16^18






Like us on Facebook