Sweet Leaf (ver4) Tab - Black Sabbath






This version is how toni REALLY plays it... enjoy.
Primeevil88@yahoo.com

Intro (riff 1)
E---------------------------------------------------------------------------
B---------------------------------------------------------------------------
G---------------------------------------------------------------------------
D---------------------------------------------------------------------------
A----7-7-7-x-x-12-11-10-10-10-12--7-7-7-x-x-12-11-10-10-10-12---------------
E----5-5-5-x-x-10-9--8--8--8--10--5-5-5-x-x-10-9--8--8--8--10---------------
repeat: 4x

riff 2
E---------------------------------------------------------------------------
B---------------------------------------------------------------------------
G---------------------------------------------------------------------------
D---------------------------------------------------------------------------
A----7---5--7--12--7-7------------------------------------------------------
E----5---3--5--10--5-5------------------------------------------------------
repeat: 2x
repeat: riff 1
repeat: riff 2
 
riff 3
E---------------------------------------------------------------------------
B---------------------------------------------------------------------------
G---------------------------------------------------------------------------
D---------------------------------------------------------------------------
A----7--7-7-7-7-7/9---------------------------------------------------------
E----5--5-5-5-5-5/7---------------------------------------------------------
repeat: 4x

solo (dont know it)

repeat:riff 1
repeat:riff 2
                                 end
        (email me if u have any problems or questions about song)






Like us on Facebook