Sweet Leaf Intro Tab - Black Sabbath






----------------------------------------------------------------------------
    Sweet leaf- black sabbath
-------------------------------------------------------------------------
Tabbed by:ACDC101
Email:element4909@yahoo.com

Tuning:Standard  >= slide up fretboard like h
INTRO(main riff)
e|--------------------------------------------------------------------------|
B|--------------------------------------------------------------------------|
G|------7->-6->-5--5-5-7----------------------------------------------------|
D|------5->-4->-3--3-3-5----------------------------------------------------|
A|--7-7---------------------------------------------------------------------|
E|--5-5---------------------------------------------------------------------|






Like us on Facebook