Symptom Of The Universe (ver2) Tab - Black Sabbath






E--------------VERSE RIFF-----------------------------------------------|
B-----------------------------------------------------------------------|
G-----------------------------------------------------------------------|
D-----------------------------------5-----------------------------------|
A----------------4--------------------4---------------------------------|
E--3-3-3-3-3-3-3------3-3-3-3-3-3-3-------------------------------------|

E-------------OTHER RIFF-----------------------------------------------|
B----------------------------------------------------------------------|
G----------------------------------------------------------------------|
D---9------5-----------------------------------------------------------|
A---7------3------9----------------------------------------------------|
E-----------------7----------------------------------------------------|

THIS IS MY FIRST TAB EVER SO ITS PROLLY PRETTY BAD, IF YOU ABSOLUTELY MUST b***h AT ME ABOUT IT MY EMAIL 
MADMANDALTON@CS.COM

                LOVE, DAN






Like us on Facebook