Symptom Of The Universe (ver4) Tab - Black Sabbath






Artist: Black Sabbath
Album: Sabotage
Song: Symptom Of The Universe
Tuning: Standard

My first attempt to tab, well, ANYTHING.  I like this thrash-like sound from the
godfathers of heavy metal, so I chose to tab it.

Intro Riff/Verse Riff
E |----------------|----------------|----------------|----------------|
B |----------------|----------------|----------------|----------------|
G |----------------|----------------|----------------|----------------|
D |----------------|----------------|--------------9-|----------------|
A |--------------8-|------------8---|--------------7-|--8---------8---|
E |0-0-0-0-0-0-0-6-|------------6---|0-0-0-0-0-0-0---|--6---------6---|
pm . . . . . . .                     . . . . . . .

After Intro/After Verse "Yeaaaah!"
E |----------------|----------------|----------------|----------------|
B |----------------|----------------|----------------|----------------|
G |7---------------|----------------|----------------|----------------|
D |7---------------|8---------------|7---------------|----------------|
A |5---------------|8---------------|7---------------|----------------|
E |----------------|6---------------|5---------------|----------------|

The Particularly Tricky-Sounding Bit
E |----------------|----------------|----------------|----------------|
B |----------------|----------------|----------------|----------------|
G |----------------|----------------|----------------|----------------|
D |4-5-2-4-0-2-----|----------7----|4-5-2-4-0-2-----|----------7----|
A |------------4-5-|2-4-5-----7----|------------4-5-|2-4-5-----7----|
E |----------------|----------5----|----------------|----------5----|

Frankly, however, I'm an idiot and am fully incapable of figuring out either the
acoustic bit or the solo.   This should, however, be enough to amuse your friends.

Have fun!
~ Caffeine Commando






Like us on Facebook