The Mob Rules (ver2) Tab - Black Sabbath






                            THE MOB RULES
                            BLACK SABBATH
=============================================================================
=============================================================================
TUNE DOWN ONE HALF STEP(LOW TO HIGH:Eb Ab Db Gb Bb Eb).
ALL NOTES SOUND IN THE KEY OF Ab MINOR,ONE HALF STEP LOWER THAN WRITTEN.

INTRO

Eb|-------------------|-------------------|-----------------------||
Bb|-------------------|-------------------|-----------------------||
Gb|-------------------|-------------------|-----------------------||
Db|-2---2-2-----------|-2---2-2-----------|-2.-2----2-2-----------||
Ab|-0---0-0-3-0-3-0---|-0---0-0-3P0-3P0---|-0.-0----0-0-3P0-3P0-0-||
Eb|---3B------------3-|---3B------------3-|------3B---------------||

Eb|----------------||
Bb|-3--------------||
Gb|-2--------------||
Db|-0--0-----------||
Ab|----0-----------||
Eb|------3-3-2-3-2-||

 (VERSE) # 1&2
Eb|-------------------|-------------------|-----------------------||
Bb|-------------------|-------------------|-----------------------||
Gb|-------------------|-------------------|-----------------------||
Db|-2-2--2-2----------|-2---2-2-----------|-2.-2----2-2-----------||
Ab|-0-0--0-0-3P0-3P0--|-0---0-0-3P0-3P0---|-0.-0----0-0-3P0-3P0-0-||
Eb|----3B-----------3-|---3B------------3-|-----------------------||

Eb|--------------||
Bb|-3.-----------||
Gb|-2.-----------||
Db|-0.-----------||
Ab|--------------||
Eb|----3-3-2-3-2-||

Eb|----------------------|---|-----------------------||
Bb|----------------------|---|-----------------------||
Gb|----------------------|---|-----------------------||
Db|-2.-2---2-2-----------|---|-2.-2----2-2-----------||
Ab|-0.-0---0-0-3P0-3P0---|---|-0.-0----0-0-3P0-3P0-0-||
Eb|------3B------------3B|---|------3B---------------||
 
       USE W/BAR WITH NOTES IN ()(THAT GOES WITH ALL NOTES IN () ).
Eb|-------------------------||
Bb|-3--(3)-(3)-(3)-(3).-(3)-||
Gb|-2--(2)-(2)-(2)-(2).-(2)-||
Db|-0--(0)-(0)-(0)-(0).-(0)-||
Ab|-------------------------||
Eb|-------------------------||

 (PRE-CHORUS)
Eb|----------------------------------------------||
Bb|------7-(7)-(7)-(7)-(7)-(7)-(7)-(7).----------||
Gb|-9--9-7-(7)-(7)-(7)-(7)-(7)-(7)-(7).----------||PLAY TWICE
Db|-9--9-7-(7)-(7)-(7)-(7)-(7)-(7)-(7).----------||
Ab|-7--7-7-(7)-(7)-(7)-(7)-(7)-(7)-(7).----------||
Eb|-0------------------------------------------0-||
                                                       
Eb|------------------------|--------------|------------------------|
Bb|------7-(7)-(7)-(7)/-10-|-(10)~~~~~~~~~|------------------------|
Gb|-9--9-7-(7)-(7)-(7)/-10-|-(10)---------|------------------------|
Db|-9--9-7-(7)-(7)-(7)/-10-|-(10)---------|-(0)----(0)---(0)-(0).--|
Ab|-7--7-7-(7)-(7)-(7)/----|--------------|------------------------|
Eb|------------------------|--------------|------------------------|

 (CHORUS)(2ND TIME) GO BACK TO 2ND VERSE
Eb|-----------------------|--|-----------------------|--------------||
Bb|-----------------------|--|-----------------------|-3.-----------||
Gb|-----------------------|--|-----------------------|-2.-----------||
Db|-2.-2----2-2-----------|--|-2.-2----2-2-----------|-0.-----------||TWICE
Ab|-0.-0----0-0-3P0-3P0---|--|-0.-0----0-0-3P0-3P0-0-|--------------||
Eb|------3B-------------3-|--|------3B---------------|----3-3-2-3-2-||

 (SOLO)
Eb|-----------|-------------------------------------|-------------------|
Bb|-13B-~~~~~-|-13-1310----10-13-10-10-------------|-------------------|
Gb|-----------|----------12-------12B---12-10-12-12-|-10----------------|
Db|-----------|-------------------------------------|----12-10----1210-|
Ab|-----------|-------------------------------------|----------12-------|
Eb|-----------|-------------------------------------|-------------------|

Eb|----------------------------|----------------------------------|
Bb|----------------------------|----------------------------------|
Gb|-10-------------------------|----------------------------------|
Db|----12-10-10-1210-10-12-10-|----10----------10-------8--------|
Ab|----------12-------12-------|-12----12-10-12----/8-10---87----|
Eb|----------------------------|-------------------------------10-|

Eb|---------------------------------12------------------------------------|
Bb|---------------------------10-13----13-10-10-13-10---------------------|
Gb|---------------------10-12-------------------------12-12-109-------10-|
Db|---------------10-12------------------------------------------12-12----|
Ab|----7--8-10/13---------------------------------------------------------| 
Eb|--8--------------------------------------------------------------------|

Eb|---------------------------------|-----------|
Bb|---------------------------------|-----------|
Gb|-------10----10-12-12-12-10----10|-----------|
Db|----------12----------------12---|-----------|
Ab|-10-12---------------------------|-----------|
Eb|---------------------------------|-10---10






Like us on Facebook