The Wizard (ver2) Bass Tab - Black Sabbath






BLACK SABBATH
THE WIZARD
STANDARD TUNING
E,A,D,G.

     INTRO x4                   *FILL PLAYED ON 3rd TIME
G-----|------------|-----------------------|-------------------------------|
D---4-|------------|.----10------(-1410-)-|-10-10----------------10------.|
A---4-|------------|.12------12-----------|-------12-12-------10----12-10.|
E-----|------------|-----------------------|-------------10-12-------------|
        HARMONICA                            .

 GUITAR SOLO     
G------------------|-----------------------|-------------------------------|
D------------------|.----10/---------------|-10-10----------------10------.|
A-12------------10-|.12------12-----------|-------12-12-------10----12-10.|
E-/----------------|-----------------------|-------------10-12-------------|
  /             ON CUE                       .
  /

G---------------||
D---------------||
A-12------------||
E---------------||


VERSE(S)
1                                2
G----------------15-|-----------||---------------------||
D.------------15----|----------.||.-------------------.||
A.12-12----13-------|-12-------.||.15-14--12-12-------.||
E-------------------|-----------||---------------------||
 MISTY MORNING...                     .        NEVER TALKING...

 OUTRO x4     * PLAY FILL 2nd TIME.
G-----------------------|-------------------------------|
D.----10-----(/14-10/)-|-10-10----------------10------.|
A.12------12-----------|-------12-12-------10----12-10.|
E-----------------------|-------------10-12-------------|
                          .
 x3                                       FINE
G-------------------------------|----------||
D.10-10----------------10------.|----------||
A.------12-12-------10----12-10.|-12-------||
E-------------10-12-------------|----------||
  .                                    






Like us on Facebook