The Wizard (ver3) Bass Tab - Black Sabbath






Black Sabbath 
The Wizard
EADG

Intro: 
|------||------------|-------------------|
|------||*-----------|--------9-7-------*|
|------||*---10------|-7-7--9------8p7--*|
|-rest-||-7------7-r-|-----------------7-|

|----------------------|-------------------|
|----------------------|--------9-7--------|
|----10-----(9^11)-9---|-7-7--9------8p7---|
|-7------7-----------5-|-----------------7-|

|------------|-------------------|---------|
|*-----------|--------9-7-------*|---------|
|*---10------|-7-7--9------8p7--*|---------|
|-7------7-r-|-----------------7-|-7-----r-|

|------------|-------------------|
|*-----------|--------9-7-------*|
|*---10------|-7-7--9------8-7--*|
|-7------7-r-|-----------------7-|

Verse:
|--------|-----11-------|
|*-------|---9---------*|
|*-7-7-r-|-9-------7-r-*|
|--------|--------------|X6

Chorus:
|-------------|
|*-----------*|
|*-7-6-4-2-r-*|
|-------------|X4

Pre-Verse:
|------------|-------------------|
|*-----------|--------9-7-------*|
|*---10------|-7-7--9------8p7--*|
|-7------7-r-|-----------------7-|X4

|-------|
|-------|
|-------|
|-7~~~r-|

Verse:
Chorus:

Solo:
|--------|-------|-------|-----11-------|
|*-------|-------|-------|---9---------*|
|*-7-7-r-|-9-5-r-|-7-7-r-|-9-------7-r-*|
|--------|-------|-------|--------------|X3

|--------|-----11-------|
|*-------|---9---------*|
|*-7-7-r-|-9-------7-r-*|
|--------|--------------|X2

Verse:
Chorus:

Outro:
|------------|-------------------|
|------------|--------9-7--------|
|----10------|-7-7--9------8p7---|
|-7------7-r-|-----------------7-|

|----------------------|-------------------|
|----------------------|--------9-7--------|
|----10-----(9^11)-9---|-7-7--9------8p7---|
|-7------7-----------5-|-----------------7-|

|------------|-------------------|
|*-----------|--------9-7-------*|
|*---10------|-7-7--9------8p7--*|
|-7------7-r-|-----------------7-|

|--------------------|
|*--------9-7-------*|
|*-7-7--9------8p7--*|
|------------------7-|

|------|
|------|
|-7--r-|
|------|






Like us on Facebook