Trashed Bass Tab - Black Sabbath






-------------------------------------------------------------------------------
     TRASHED  Black Sabbath
-------------------------------------------------------------------------------

Tabbed By : BigMoBass92
e-mail: lacrosse89@hotmail.com

Tuning:Standard (EADG)

Some Notes: Slapping is okay, BUT NO PICKS. THIS IS BASS, NOT A GUITAR!

Intro:

G|------------------------------------------------------------------------------|
D|------------------------------------------------------------------------------|
A|----------------------------5455-77777777-----5455-77777777-----5455-77777777-|
E|-555-555-5-5-5-00000000-0-5---------------0-5---------------0-5---------------|

Verse 1:

G|------------24------------24------------24------------32-------------------|
D|---------24------------24------------24------------------32----------------|
A|-2220220-------2220220-------2220220-------300200300-----------------------|
E|---------------------------------------------------------------------------|

Verse 2:

G|-----------------------------------------------------------------------------|
D|-----------------------------54----------------------------------------------|
A|-----------------------5454--------------------------------------------------|
E|-0000000000000000-(16)----------Repeat all 3x then on last: 000000000000 (12-|

G|---------------------------------------------------------------------------|
D|----24-------54------------------------------------------------------------|
A|-24----5454----------------------------------------------------------------|
E|---------------------------------------------------------------------------|

Verse 3:

G|--------------------------------------79-----------------------------------|
D|-----------------------------------79--------------------------------------|
A|------------------87-----87-----87-------87--------------------------------|
E|-0000000000000000----000----000------------000---Repeat 2x-----------------|

Chorus:
Oh, Mr. MiracleWont Get Trashed Again
G|---------------------------------------------------------------------------|
D|---------------------------------------------------------------------------|
A|-3------2-----1-----0-----3-----2-----1----0-------------------------------|
E|---------------------------------------------------------------------------|

Oooooooohhh, can ya hear my lies?
G|-----------------------------------------------------------------|
D|----------------------------------------------------------32-----|
A|-5------3--------------5-----3---------------320320320320----32--|
E|---------------3---------------------3---------------------------|To-Guitar-Solo

Order: Intro, Verse 1, 2, 3, 2, 3, Chorus, During Solo Verse 2, 3, Chorus, 2
Use verse 2 as outtro. Geezer Butler does many variations as he moves up the bass scales 
different frets, so if youre sloppy, theres room for improvisation.

SABBATH RULES (with or without Ozzy, Ian Gillian can really belt out!)

| /  slide up
|   slide down
| h  hammer-on
| p  pull-off
| ~  vibrato
| +  harmonic
| x  Mute note
===============================================================================






Like us on Facebook