War Pigs (ver3) Bass Tab - Black Sabbath






Black Sabbath-War Pigs
From the Symptom of the 
Universe Compilation 

Intro
|--R-----------------------------------------------
|--E-----------------------------------------------
|--S---5-3---5~--5-5---777-7p5~--5-5---0-3-0-3---3-
|--T-------5---------------------------------------

---------------------------------------------------
--------------------------3------------------------
-7-5-3---3-5-5----5-5-3-0---5~--5-7777777777p5----
-------5-------------------------------------------

---------------------------------------------------
---------------------------------------------3-----
-5-5---0-3-0-3---3---7-5-3---3---5---5-5-3-0---5---
---------------------------5-----------------------

---------------------------------------------------
---------------------------------------------------
-5-5/7777777777p5---5-5---0-3-0-3---3---7-5-3---3-
-----------------------------------------------5---

---------------------------------------------------
-------------------------------4-5-6-7-------------
-5-5-5-5-5-5-7-7-77777-5-5-5-5----------7-7-7------
---------------------------------------------------

--------------|
-7-6-5-4------|
---------5----|
--------------|

Verse1     Occasionally     This too
|---------|------------|-----------------|
|---------|------------|-----------------|
|---5h7---|---5h7/3----|-5h7--10-9-8---7-|
|---------|------------|-----------------|

Fill 1
|------------------|
|------------------|
|-00005^--00-0-3^--|
|------------------|

Verse 2
|------------------|
|------------------|
|-000075--00-075---|
|------------------|

Ending fills in between 
guitar riffs starting at 5:43
|------------------------------|
|------------------5-----------|x2
|-7---5-555555---7---7-777777--|
|---7--------------------------|

Improvise the solos. Great practice.






Like us on Facebook