War Pigs (ver4) Bass Tab - Black Sabbath






War Pigs - Bass
Black Sabbath - Paranoid (1970)
thelordofguitar


INTRO
!!---------------------------------------------------------------|
!!-----------------------------------------------------9--7--5---|
!!--7--7-5------7---7--7-5---5--7----7-5-5-5--5---5--5---------7-|
!!----------7---------------7----------------7--7----------------|

---------------------------------7-9-9-9-9-9-9-------------------|
--------------------5--------7-9---------------------------------|
-5------7--7--7-5------7--7---------------------7-5-5--5---5-----|
----7-------------7--------------------------------------7---7---|

----------------------------------------------7-9-9-9-9-9-9------|
-------9-7-5--------------------5---------7-9--------------------|
-5--5---------7--5--7--7--7-5-------7--7---------------------7-5-|
------------------------------7----------------------------------|

---------------------------------------------------------5-7-7-7-|
--------------------9-7-5----------------------------5-7---------|
-5--5---5-----5--5--------7-5-----7-7-7-7-7-7--7-5-5-------------|
------7---7--------------------7---------------------------------|

                                               Generals...
-7-7-7--------------7-9---------7----------!!--------------!!----|
--------------5-7-9---------------9-7-5----!!--------------!!----|
-------5-7-7-------------7-5-5-----------5-!!-5--7---------!!----|
-------------------------------------------!!--------------!!----|

     2x  (riff 1)
!!-------------------------9-7------------------------------------|
!!---------------------7/9-----9-7--------------------------------|
!!-5--7-----10-9-8--7-----------------5--7-----10-9-8--7--5-------|
!!----------------------------------------------------------7-5-7-|

          4x                            Politicians hide...
-----!!---------------------------!!-----9-9-9--97--------------|
-5---!!-------5-6-7-------------5-!!---------------------------5-|
-----!!--5-7---------7-7--7-5-7---!!--7-------------7-7--7-5-7---|
-----!!---------------------------!!-----------------------------|
                                    Now in darkness...  2x (riff 1)
---!!------------------------!!------------------!!------------!!
---!!---------SOLO-----------!!------------------!!------------!!
---!!---(YOU'RE ON YOUR OWN)-!!--5--7------------!!------------!!
---!!------------------------!!------------------!!------------!!
                     2x
--!!-------!!--------------------------------------------------!!
--!!-------!!--------------------------------5-------5---5---5-!!
--!!---7---!!---7-----5---5--5----5--7----7-----7--7---7---7---!!
--!!-------!!------7----7---7---7------------------------------!!

            4x                           2x
--!!-----------9---------9-----!!-----------7---------7------5-!!
--!!-----------------------9---!!-----------------------5--7---!!
--!!----7-7-7-----7-7-7------9-!!----5-5-5-----5-5-5-----------!!
--!!---------------------------!!------------------------------!!

         2x
--!!-----------5---------5--------3-!!--------------!!---------!!
--!!------------------------3--5----!!--------------!!---solo--!!
--!!----3-3-3-----3-3-3-------------!!---2---3--2-2-!!-(again)-!!
--!!--------------------------------!!--------------!!---------!!

         do till end
--!!------------------------------------------!!-----------------|
--!!------------------------------------------!!-----------------|
--!!---5---7----5---5---5-5--7---5---5---5----!!-----------------|
--!!----------7---7---7--------7---7---7---7--!!-----------------|






Like us on Facebook