Children Surrender Solo Tab - Black Veil Brides






"Children Surrender"-Black Veil Brides \m/
Tuning- Drop D
Solo
E|--------------------------------------------------------------------|
B|--------------------------------------------------------------------|
G|------------------------------------------15-13-12--------15-13-12--|
D|------7b---9h10p9---12---17-16~----12-9-----------15-13-12----------|
A|---5~---------------------------------------------------------------|
D|--------------------------------------------------------------------|
E|--------------------------------------------------------------------|
B|-------------------------13-14-15--18-16-18---20-18-20---(22)23~----|
G|--------------------------------------------------------------------|
D|--15-13-12(once more)-13~-------------------------------------------|
A|--------------------------------------------------------------------|
D|--------------------------------------------------------------------|
(Keep finger on 12th fret for this part)
E|--14p13p12--14--15p14p12-14--14p13p12--|(How ever many times its done)
B|---------------------------------------|
G|---------------------------------------|
D|---------------------------------------|
A|---------------------------------------|
D|---------------------------------------|
E|--------------------------------------------------------------------|
B|---20~-------------------------------20-18-17-----------------------|
G|--------20-18-17--18-16-15--------------------20-18-17---15~--------|
D|---------------------------18-16-15---------------------------------|
A|--------------------------------------------------------------------|
D|--------------------------------------------------------------------|
E|-----------12-13-14------------15-16-17-----------17-18-19-----------|
B|--12-13-14-----------15-16-17------------17-18-19-----------19-20-21-|
G|---------------------------------------------------------------------|
D|---------------------------------------------------------------------|
A|---------------------------------------------------------------------|
D|---------------------------------------------------------------------|
E|--19-20-21--------22b~---------------------------------------------|
B|-------------------------------------------------------------------|
G|-------------------------------------------------------------------|
D|-------------------------------------------------------------------|
A|-------------------------------------------------------------------|
D|-------------------------------------------------------------------|






Like us on Facebook