Eye For An Eye (ver2) Tab - Blacklisted




p - Pulloff
/ - Slide
.. - Palm Mute

Full Step Down
Intro x10
D|-------------------------------------------|
A|-------------------------------------------|
F|-----------------------7-7-7-7-7/10--10/9--|
C|-3p2-2-2--2-2-2-2-2-2--7-7-7-7-7/10--10/9--|
G|-3p2-2-2--2-2-2-2-2-2--5-5-5-5-5/8---8-/7--|
D|-1p0-0-0--0-0-0-0-0-0----------------------|
       .    . . . . . .

D|------------------------------------|
A|------------------------------------|
F|------------------------------------|
C|-3p2-2-2--2-2-2-2-2-2--2-2-2-2-2-2--|
G|-3p2-2-2--2-2-2-2-2-2--2-2-2-2-2-2--|
D|-1p0-0-0--0-0-0-0-0-0--0-0-0-0-0-0--|
       .    . . . . . .  . . . . . .

Verse x1
D|-------------------------------------------------------------|
A|-------------------------------------------------------------|
F|-5----------------------------------3-3-3-3-3----------------|
C|-5--6--3---2-2-2-2-2-2-2-2-2-2-2-2--3-3-3-3-3--3-3-3--5-5-5--|
G|-3--6--3---2-2-2-2-2-2-2-2-2-2-2-2--1-1-1-1-1--3-3-3--5-5-5--|
D|----4--1---0-0-0-0-0-0-0-0-0-0-0-0-------------1-1-1--3-3-3--|
       . . . . . . . . . . .

D|------------------------------------------------------------------------------------------------------|
A|------------------------------------------------------------------------------------------------------|
F|--------------------------5-5-5-5-5------------------------------------------3-3-3-3-3----------------|
C|-2-2-2-2-2-2-2-2-2-2-2-2--5-5-5-5-5--6-6-6--3-3-3---2-2-2-2-2-2-2-2-2-2-2-2--3-3-3-3-3--3-3-3--5-5-5--|
G|-2-2-2-2-2-2-2-2-2-2-2-2--3-3-3-3-3--6-6-6--3-3-3---2-2-2-2-2-2-2-2-2-2-2-2--1-1-1-1-1--3-3-3--5-5-5--|
D|-0-0-0-0-0-0-0-0-0-0-0-0-------------4-4-4--1-1-1---0-0-0-0-0-0-0-0-0-0-0-0-------------1-1-1--3-3-3--|
     . . . . . . . . . . .. . . . . . . . . . . 

Chorus x4
D|---------------------------|
A|---------------------------|
F|---------------------------|
C|-2-3-2--2-2---2-3-6-5-3/5--|
G|-2-3-2--2-2---2-3-6-5-3/5--|
D|-0-1-0--0-0---0-1-4-3-1/3--|
  . .

Verse x1
D|-------------------------------------------------------------|
A|-------------------------------------------------------------|
F|-5----------------------------------3-3-3-3-3----------------|
C|-5--6--3---2-2-2-2-2-2-2-2-2-2-2-2--3-3-3-3-3--3-3-3--5-5-5--|
G|-3--6--3---2-2-2-2-2-2-2-2-2-2-2-2--1-1-1-1-1--3-3-3--5-5-5--|
D|----4--1---0-0-0-0-0-0-0-0-0-0-0-0-------------1-1-1--3-3-3--|
       . . . . . . . . . . .

D|------------------------------------------------------------------------------------------------------|
A|------------------------------------------------------------------------------------------------------|
F|--------------------------5-5-5-5-5------------------------------------------3-3-3-3-3----------------|
C|-2-2-2-2-2-2-2-2-2-2-2-2--5-5-5-5-5--6-6-6--3-3-3---2-2-2-2-2-2-2-2-2-2-2-2--3-3-3-3-3--3-3-3--5-5-5--|
G|-2-2-2-2-2-2-2-2-2-2-2-2--3-3-3-3-3--6-6-6--3-3-3---2-2-2-2-2-2-2-2-2-2-2-2--1-1-1-1-1--3-3-3--5-5-5--|
D|-0-0-0-0-0-0-0-0-0-0-0-0-------------4-4-4--1-1-1---0-0-0-0-0-0-0-0-0-0-0-0-------------1-1-1--3-3-3--|
     . . . . . . . . . . .. . . . . . . . . . . 

D|----------------------------------------------|
A|----------------------------------------------|
F|---5-------------------3-3--------------------|
C|-2-5-6--3---3---3-2-2--3-3--3-3--5---5---3-2--|
G|-2-3-6--3---3---3-2-2--1-1--3-3--5---5---3-2--|
D|-0---4--1-0-1-0-1-0-0-------1-1--3-0-3-0-1-0--|
    .   .     .   .


EYE FOR AN EYE! (Pickslide) x1
D|------------------|
A|------------------|
F|------------------|
C|-8-8-8-8-8-8-8-8--|
G|-8-8-8-8-8-8-8-8--|
D|-6-6-6-6-6-6-6-6--|


Breakdown x4     End x1
D|-----------------------------------------------------------------|--------|
A|-----------------------------------------------------------------|--------|
F|-9--------------10----10--10/7/9---------------------------------|--------|
C|-9-2-2-2--2-2-2-10--2-10--10/7/9--2-2-2--2-2-2--8-8-8-8-8-8-8-8--|-2-3-2--|
G|-7-2-2-2--2-2-2-8---2-8---8-/5/7--2-2-2--2-2-2--8-8-8-8-8-8-8-8--|-2-3-2--|
D|---0-0-0--0-0-0-----0-------------0-0-0--0-0-0--6-6-6-6-6-6-6-6--|-0-1-0--|
     . .    . . .     .     . .    . . .

ĂŽnscrie-te la newsletter


Join the ranks ! LIKE us on Facebook