Tourist Tab - Blacklisted




. - palm mute

1.5 Steps Down
Intro x1
Db|--------------------|
Ab|--------------------|
Fb|--------------------|
Cb|-5--8--2--3--6-5-2--|
Gb|-5--8--2--3--6-5-2--|
Db|-3--6--0--1--4-3-0--|

Verse x2
Db|---------------------------------------------|
Ab|---------------------------------------------|
Fb|----------------------------------7-7-7-7-7--|
Cb|-2-2-2-2-2--8-8-8-8-8--5-5-5-5-5--7-7-7-7-7--|
Gb|-2-2-2-2-2--8-8-8-8-8--5-5-5-5-5--5-5-5-5-5--|
Db|-0-0-0-0-0--6-6-6-6-6--3-3-3-3-3-------------|
      1st time     2nd time
Db|----------------------------------|------------|-------|
Ab|----------------------------------|------------|-------|
Fb|----------------------------------|------------|-------|
Cb|-2-2-2-2-2--8-8-8-8-8--5-5-5-5-5--|-3-3-3-3-3--|-3--3--|
Gb|-2-2-2-2-2--8-8-8-8-8--5-5-5-5-5--|-3-3-3-3-3--|-3--3--|
Db|-0-0-0-0-0--6-6-6-6-6--3-3-3-3-3--|-1-1-1-1-1--|-1--1--|

Breakdown x4
Db|------------------------------------|
Ab|------------------------------------|
Fb|------------------------------------|
Cb|-2-2--2-2-2-2-2-2--2-2-2-2-2-2-2-2--|
Gb|-2-2--2-2-2-2-2-2--2-2-2-2-2-2-2-2--|
Db|-0-0--0-0-0-0-0-0--0-0-0-0-0-0-0-0--|
         . . . . . .  . . . . . . . .

Chorus x2
Db|---------------------------------------------------------------------|
Ab|---------------------------------------------------------------------|
Fb|----------------------------------------------------8-8-8-8-8-8-8-8--|
Cb|-2-2-2-2-2-2-2-2--2-2-2-2-2-2-2-2--2-2-2-2-2-2-2-2--8-8-8-8-8-8-8-8--|
Gb|-2-2-2-2-2-2-2-2--2-2-2-2-2-2-2-2--2-2-2-2-2-2-2-2--6-6-6-6-6-6-6-6--|
Db|-0-0-0-0-0-0-0-0--0-0-0-0-0-0-0-0--0-0-0-0-0-0-0-0-------------------|

End On x1
Db|-----|
Ab|-----|
Fb|-----|
Cb|-2~--|
Gb|-2~--|
Db|-0~--|

ĂŽnscrie-te la newsletter


Join the ranks ! LIKE us on Facebook