Hemlock Society Bass Tab - Bleeding Through






-------------------------------------------------------------------------------
     Hemlock Society for bass - Bleeding Through
-------------------------------------------------------------------------------

Tabbed By : arsonite 


Tuning: Drop C

Ryan usually uses a 5 stringer bass but I tabbed this for a four because the
high E wasn't being used throughout the song. Plus, it saves time. ;)

Here we go:

Part A
F |---------------------------------------|
C |---------------------------------------|
G |-7-5-----7-5-----7-5-----5-3-5-7b-5-7--|
C |-----2-0-----2-0-----2-0---------------|

Part B 0:28
F |--------------------------------------------------|
C |--------------------------------------------------|
G |-------------------------------------5-3-1-3-1-0--|
C |-2p0-000000-2h3-00-3h5-00-2p0-000000--------------|

F |----------------------------------------------|
C |---------------------------------------4-6----|
G |-------------------------------------4-----6--|
C |-2p0-000000-2h3-00-3h5-00-2p0-000000----------|

Part C 0:49
F |------------------------------------------------------|
C |------------------------------------------------------|
G |-------------------------3-------------------------0--|
C |-0-2-0-2-0-2-3-0-2-0-2-0---0-2-0-2-0-2-3-0-2-0-2-0----|

Part D 1:17
F |----------------------------------|
C |----------------------------------|
G |----------------------------------|
C |-0-7-8-7-5-3-5-2---0-7-8-7-5-3-2--|

Fill Part 1 1:35
F |----------------------|
C |----------------------|
G |----------------------|
C |-0~--0-0-0-0-0-0-0-0--|

Fill Part 2 1:41
F |--------------|
C |--------------|
G |--------------|
C |-0--0--0--0---|

Part E 1:58
F |--999-999-888---------------------------------|
C |--------------666-777-777-666-----------------|
G |----------------------------------------------|
C |-------------------------------5-000-3-000-2--|

Play Part A again at 2:26

Part F 2:45 
F |-------------------------(9)-(7)-(9)-(10)--|
C |-------------------------------------------|
G |-7-5-----7-5-----7-5-----------------------|
C |-----2-0-----2-0-----2-0-------------------|


That's it! The last harmonic of the song can be really difficult to play
as it is on the tenth fret so remember to make sure to keep the open
string from ringing out. Enjoy!!

| /  slide up
|   slide down
| h  hammer-on
| p  pull-off
| ~  vibrato
| +  harmonic
| () nat. harmonic
| x  Mute note
===============================================================================






Like us on Facebook