Return To Sender Intro Tab - Bleeding Through






ARTIST: Bleeding Through

ALBUM: The Truth

SONG: Return to Sender

So i noticed a lack of tabs from Bleeding Through's Album "The Truth" and decided that i 
attempt to tab one of the songs out. This is my first tab so please excuse anything unproffesional

Tuning: Drop B (B Gb B E Ab Db or B F# B E G# C#)

Db-------------|
Ab-------------|
E--7-7777-7----|
B--7-7777-7----|
Gb-5-5555-5----|
B--------------|

Db-------------|
Ab-------------|
E--6-6666-6----|
B--6-6666-6----|
Gb-4-4444-4----|
B--------------|

Db-------------|
Ab-------------|
E--9-9999-9----|
B--9-9999-9----|
Gb-7-7777-7----|
B--------------|

Db----------------------|
Ab----------------------|
E-10---10-10-10-10--10--|
B-10---10-10-10-10--10--|
Gb-8---8--8--8--8---8---|
B-----------------------|

repeat this untill the next guitar part comes in

feel free to add more to the song and correct any errors i've made. I'll try to figure 
rest out later.






Like us on Facebook