Razor Jack Tab - Blood Red Throne






http://www.bloodredthrone.net/

|---------------------------------------------------|
|---------------------------------------------------|
|---------------------------------------------------|
|---------------------------------------------------|
|---------8--2-2--8--2-2--8--2-2-----------------|
|44004400-----0-0------0-0------0-0-----------------|
      . .      . .      . .
|--------------------------------------------------|
|--------------------------------------------------|
|--------------------------------------------------|
|---------3-2-----3-2-----3-2----------------------|
|---------3-2-2-2-3-2-2-2-3-2-2-2------------------|
|44004400-----0-0-----0-0-----0-0------------------|
      . .     . .     . .

|----------------------------------------------------|
|----------------------------------------------------|
|----------------------------------------------------|
|2---------2---------2-------------------------------|
|2---------2---------2----------2-335-6-5-6----------|
|-00-0-0-0--00-0-0-0--00-0-0-0--0-113-4-3-4----------|
  .. . . .  .. . . .  .. . . .    ...   . .

|--------------------------------------------------------------|
|--------------------------------------------------------------|
|--------------------------------------------------------------|
|--------------------------------------------------------------|
|--------------------------------------7-----8-----7-----8-----|
|00-0-3-4-00-0-6-3-00-0-3-4-00-0-6-3-0---6-0---6-0---6-0---6---|
 .. .     .. .     .. .     .. .     . . . . . . . . . . . .

|----------------------------------------------------|
|----------------------------------------------------|
|----------------------------------------------------|
|----------------------------------------------------|
|87---76---5-4-------------------------------------|
|8777-7666-5-4-------------------------------------|
    ..    ..

|---------------------------------------------------|
|---------------------------------------------------|
|---------------------------------------------------|
|---------------------------------------------------|
|----------7710106699-----------1010779966----------|
|00-0-00-0------------00-0-00-0---------------------|
 .. . .. .            .. . .. .
at the end
|-------------------------------------------|-----------------|
|-------------------------------------------|-----------------|
|-------------------------------------------|-----------------|
|-------------------------------------------|-----------3---3-|
|3---3-5-6---5-3-2--------------------------|-2---------1---1-|
|1-1-1-3-4-4-3-1-0-0-0-0-0-0-0-0------------|-0-0-0-0-0---0---|
   .       .       . . . . . . .                . . . .   .
  at the end
|----------------------------------------------------------------|-----------|
|----------------------------------------------------------------|-----------|
|--------3-3-----------------------------3-3---------------------|-----------|
|----2-2-----2-2-3-3-----------------2-2-----2-2-3-3-------------|-----------|
|--------------------2-2-----------------------------2-2---------|-6---3-----|
|0-0---------------------1-1-4-4-0-0---------------------4-4-1-1-|-4---1-----|
 . . . . . . . . . . . . . . . . . . . . . . . . . . . . . . . .

|-----------------------------------------------------------------|
|-----------------------------------------------------------------|
|-----------------------------------------------------------------|
|------------------------------------------------2-3---5-5---3-2--|
|------------------------------------------------0-1---3-3---1-0--|
|000-0-0-000-0-0-000-0-0-000-0-0-000-0-0-000-0-0-0-1-1-3-3-3-1-0--|
 ... . . ... . . ... . . ... . . ... . . ... . .     .     .
|----------------------------------------------------------------|
|----------------------------------------------------------------|
|----------------------------------------------------------------|
|------------------------------------------------2-3---5-5---3-2-|
|------------------------------------------------0-1---3-3---1-0-|
|000-0-0-000-0-0-6-3-0-6-3-0-6-3-000-0-0-000-0-0-0-1-1-3-3-3-1-0-|
 ... . . ... . .                 ... . . ... . .     .     .
|-------------------------------------|
|-------------------------------------|
|-------------------------------------|
|-------------------------------------|
|-------------------------------------|
|000-000-000-000-6-3-0-6-3-0-6-3------|
 ... ... ... ...
|-----------------------------------------------------------------|
|-----------------------------------------------------------------|
|-----------------------------------------------------------------|
|-----------------------------------------------------------------|
|-----------------------------------------------------------------|
|6-3-0-6-3-0-6-3-6-3-0-6-3-0-6-3-9-6-0-9-6-0-9-6-9-6-0-9-6-0-9-6--|

|--------------------------------------------------------------------|
|--------------------------------------------------------------------|
|--------------------------------------------------------------------|
|--------------------------------------------------------------------|
|--------------------------------------------------------------------|
|6-3-0-6-3-0-6-3-6-3-0-6-3-0-6-3-9-6-0-9-6-0-9-6-12-9-0-12-9-0-12-9--|

|--------------------------------|
|--------------------------------|
|--------------------------------|
|----7777--------8888------------|
|--------------------------------|
|5555----66664444----6666--------|

ĂŽnscrie-te la newsletter


Like us on Facebook