Bad Touch (ver2) Tab - Bloodhound Gang






BloodHound Gang
Bad Touch

I think it goes like this, becose it sounds right :)

e --15----15--15-16--16-15-16-15-------15--15-16--16-15-16-15----|
H -----13------------------------13------------------------------|
G ----------------------------------15---------------------------|
D ---------------------------------------------------------------|
A ---------------------------------------------------------------|
E ---------------------------------------------------------------|

e --18----15--15-16--16-15-16-15---------------------------------|
H -------------------------------16--16--16----------------------|
G -----17--------------------------------------------------------|
D ---------------------------------------------------------------|
A ---------------------------------------------------------------|
E ---------------------------------------------------------------|

ĂŽnscrie-te la newsletter


Like us on Facebook