Fire Water Burn Tab - Bloodhound Gang






Bloodhound Gang - Fire Water Burn
Tabbed by: DarkAgeHero
Email: blissfreak84@hotmail.com

=strum down
/=strum up

Intro

    G             Em
       /   /     /   / 
e|--3--3-3--3-3-3-0--0-0--0-0-0------------------:|
B|--0--0-0--0-0-0-0--0-0--0-0-0------------------:|
G|--0--0-0--0-0-0-0--0-0--0-0-0------------------:|
D|--0--0-0--0-0-0-2--2-2--2-2-2------------------:|
A|--2--2-2--2-2-2-2--2-2--2-2-2------------------:|
E|--3--3-3--3-3-3-0--0-0--0-0-0------------------:|

Main Riff

   G5              E5
e|-----------------------------------------------:|
B|-----------------------------------------------:|
G|-----------------------------------------------:|
D|-5-5-5-5-5-5-5-5-2-2-2-2-2-2-------------------:|
A|-5-5-5-5-5-5-5-5-2-2-2-2-2-2-------------------:|
E|-3-3-3-3-3-3-3-3-0-0-0-0-0-0-------------------:|

Chorus

   G5              E5
e|-----------------------------------------------:|
B|-----------------------------------------------:|
G|-----------------------------------------------:|
D|-5-5-5-5-5-5-5-5-2-2-2-2-2-2-------------------:|
A|-5-5-5-5-5-5-5-5-2-2-2-2-2-2-------------------:|
E|-3-3-3-3-3-3-3-3-0-0-0-0-0-0-------------------:|
   The roof...     fire....                         x3

   G5              E5
e|-----------------------------------------------|
B|-----------------------------------------------|
G|-7-7-7-7-7-7-7-7-5-5-5-5-5---5-5-5-5-5-----5---|
D|-7-7-7-7-7-7-7-7-5-5-5-5-5---5-5-5-5-5-----5---|
A|-5-5-5-5-5-5-5-5-3-3-3-3-3---3-3-3-3-3-----3---|
E|-----------------------------------------------| Back to main

ĂŽnscrie-te la newsletter


Like us on Facebook