I Hope You Die (ver3) Tab - Bloodhound Gang






Bloodhound Gang|I hope you die.
Tabbed by Loki | thats_unpossible@hotmail.com.
  
aight y'all heres the real way to play it.
Gtr 1
|-----------------------------------------------------------------------------------|
|-----------------------------------------------------------------------------------|
|-----------------------------------------------------------------------------------|
|-------3------3------------4-------4----------3-------3---------6--------6--|
|-111----11-----------------------------444-----44--------------------------|
|--------------------222-------22------------------------444--------44------|
gtr 2
|-------------------------------------------------------------------|
|-------------------------------------------------------------------|
|-------------------------------------------------------------------|
|--333----------555--------------------------------------------|
|--111--444---333--666-------------------------------------|
|----------222----------444------------------------------------|
next part:
|---------------------------------------------------------------------------|
|---------------------------------------------------------------------------|
|---------------------------------------------------------------------------|
|--3-5-6-8-10-12--13------------------------------------------------|
|--1-3-4-6--8--10--11------------------------------------------------|
|---------------------------------------------------------------------------|
just repeat those bar cords from the guitar 2 part, and hell! ya got it!
l8ta all
if anyones got the papercut tab for linkin park, gimme a hollar 

:: Ultimate Guitar Archive :: 
http://www.ultimate-guitar.com 


ĂŽnscrie-te la newsletter


Like us on Facebook