The Bad Touch Bass Tab - Bloodhound Gang






The Bad Touch
by The BloodHound Gang
tabbed by Troll (mochunk@musician.org)

bassline at beginning and somewhere in the middle as well

-------------------------------------1515-12-------------------------|
--------13-15----13-15-13----13--------------15--------15-13---13h15-|
-15-1515------15----------15---15-13------------15--11-------15------|
---------------------------------------------------------------------|

for the verses just do some octaves hitting the highs on the upbeat opposite 
the bass drum. classic dance style. i like to slap it and mix it up and just 
mess around. after all i think its a synth bass anyways.

--5-5-5-5-8-8-8-8-----------------|
------------------8-8-8-8-6-6-6-6-|
-3-3-3-3-6-6-6-6------------------|
-----------------6-6-6-6-4-4-4-4--|

pretty simple eh?

"GETTIN' HORNY NOW!..."

i couldnt help but repost this after i figured it out cuz i thought it was a 
groovy little bassline for the intro and chorus parts i wanted to know it. 
then i looked up the tab and saw it was way off. so here you are. enjoy...

all hate mail can be directed to mochunk@musician.org HI #bassplayer EFNet 
and victorwooten.com chat.

ĂŽnscrie-te la newsletter


Like us on Facebook