Eyes On Fire Tab - Blue Foundation




Standard Tuning
Intro
e|------------------------------------|
B|------------------------------------|
G|------------------------------------|
D|------------------------------------|  x3
A|--------6--------4--2-------2-------|
E|--6--6-----2--2----------2-----2----| 
e|------------------------------------|
B|------------------------------------|
G|------------------------------------|
D|------------------------------------|
A|--------6--------4--2----2-2-2------|
E|--6--6-----2--2----------2-2-2------|
Hoa   Hao    Hao   Hao   Hoo
e|------------------------------------|
B|--------------12/10--10/8--8/10-----|
G|--9/11--12/9------------------------|
D|------------------------------------|
A|------------------------------------|
E|------------------------------------|
e|------------------------------------|
B|------------------------------------|
G|------------------------------------|
D|------------------------------------|
A|--------6--------4--2-------2-------|
E|--6--6-----2--2----------2-----2----|
e|------------------------------------|
B|------------------------------------|
G|------------------------------------|
D|------------------------------------|
A|--------6--------4--2----2-2-2------|
E|--6--6-----2--2----------2-2-2------| 
e|------------------------------------|
B|------------------------------------|
G|------------------------------------|
D|------------------------------------|
A|--------6--------4--2-------2-------|
E|--6--6-----2--2----------2-----2----|
e|------------------------------------|
B|------------------------------------|
G|------------------------------------|
D|------------------------------------|
A|--------6--------4--2----2-2-2------|
E|--6--6-----2--2----------2-2-2------|
e|---------------------------------------------|
B|---------------------------------------------|
G|---------------------------------------------|
D|-----8--6-6--------6-8------------------4----|  x2
A|--6------------9-9-----6----6-6-6-6-4-4---6--|
E|---------------------------------------------| 
e|------------------------------------|
B|------------------------------------|
G|------------------------------------|
D|------------------------------------|
A|----------------/6------------------|  x2
E|------------------------------------|
e|------------------------------------|
B|------------------------------------|
G|------------------------------------|
D|------------------------------------|
A|--------6--------4--2-------2-------|
E|--6--6-----2--2----------2-----2----|
e|-------------------------|
B|-------------------------|
G|-------------------------|
D|-------------------------|
A|--------6--------4--2----|
E|--6--6-----2--2----------|
e|---------------------------------------------|
B|---------------------------------------------|
G|---------------------------------------------|
D|-----8--6-6--------6-8------------------4----|  x2
A|--6------------9-9-----6----6-6-6-6-4-4---6--|
E|---------------------------------------------| 
Pause
e|---------------------------------------------|
B|---------------------------------------------|
G|---------------------------------------------|
D|-----8--6-6--------6-8------------------4----|  x2
A|--6------------9-9-----6----6-6-6-6-4-4---6--|
E|---------------------------------------------|
Pause - Little Drum Solo

ĂŽnscrie-te la newsletter


Join the ranks ! LIKE us on Facebook