Picking Up The Pieces - Blue October




Standard Tuning

Intro: piano

Verse: bass

Pre-Chorus: it's quiet
E----2-------------|
B---3------------3-|
G-4-------------3--|
D-------------4----|
A------------------|
E------------------|

Chorus:
E------------------------------------------------14-|
B-11-1111-1112-1111-1111-111111-1111-1112-1111-11---|
G---------------------------------------------------|
D---------------------------------------------------|
A---------------------------------------------------|
E---------------------------------------------------|
2x

Post-Chorus:
E---------------|
B-12--11-----14-|
G---------11----|
D---------------|
A---------------|
E---------------|

Verse: each note 2x
E----------------------------------|
B----------------------------------|
G-3333333311111111-----------------|
D-----------------4444444444444444-|
A----------------------------------|
E----------------------------------|

Pre-Chorus

Chorus

Break:
E----------------------------------|
B-6-66-66-66-66-667-77-77-77-77-77-|
G----------------------------------|
D----------------------------------|
A----------------------------------|
E----------------------------------|
2x

E----------------------------------|
B-6-66-67-66-66-667-77-79-77-77-77-|
G----------------------------------|
D----------------------------------|
A----------------------------------|
E----------------------------------|
2x

E------------------------------------|
B-12--11-----14~------12--11---------|
G---------11------------------11--13-|
D----------------11~-----------------|
A------------------------------------|
E------------------------------------|

Chorus

Outro:
E---------------------------------|
B---------------------------------|
G---------------------------------|
D-11111111111111111111111111111111
A--x-x-x-x-x-x-x-x-x-x-x-x-x-x-x-x-|
E--9-9-9-9-9-9-9-9-9-9-9-9-9-9-9-9-|

E---------------------------------|
B---------------------------------|
G-11111111111111111010101013131313
D--x-x-x-x-x-x-x-x-x-x-x-x-x-x-x-x-|
A--9-9-9-9-9-9-9-9-8-8-8-811111111-|
E----------------------------------|
ĂŽnscrie-te la newsletter


Join the ranks ! LIKE us on Facebook