What If We Could Tab - Blue October




-------------------------------------------------------------------------------
     Blue October - What If We Could
-------------------------------------------------------------------------------
Tabbed by: Jordy
Email: thesongwriter@gmail.com

Tuning: normal

this is the 4th track off of Blue October's new CD, Foiled.  one of the best songs
and hopefully a potential single.  sounds good on acoustic, electric, or full band.
even piano.  all Blue October's lyrics can be found at www.geocities.com/blueoctoberlyrics

Chords used:
    A5  C5  E5  D5  G5  
e|----------------------------|
B|----------------------------|
G|------5-------7-------------|
D|--7---5---2---7---5---------|
A|--7---3---2---5---3---------|
E|--5-------0-------3---------|

Intro (violin):

e|------------------------------------------------------|
B|--5h6p5--5h6p5-3--5h6p5--5h6p5-3---5--5h6p5--5h6p5----|
G|---------------------------------5--------------------|
D|------------------------------------------------------|
A|------------------------------------------------------|
E|------------------------------------------------------|

A
What if we could put our lives on
C
Hold and meet somewhere inside of the world
E                                   A
I would meet you, would you meet me? (two, three, four)
A
On a park bench, on a skyscrape
C
On a mountain, oh yeah, whatever it takes
E                                  A
I would meet you, would you meet me?


Chorus:
A                       D
I'm glad to say that we met
                          G                               E
I'm sad to say that the circumstances weren't on our side
      A   D
So go on, go on be your own
G                      E
Go on be your own star


A
What if we could, where would we go?
C
And if it felt right, would you want me to know?
E                                   A
I would meet you, would you meet me? (two, three, four)
           A
Yeah, yeah, it's like a last chance for a first dance
C
You're a sunrise, God, somehow exist!
E                                   A
I would you meet, would you meet me?


REPEAT CHORUS

N.C.                      D     C   G                          
You're a superstar in my eyes
       D     C
In my eyes
            D     C   G
Look in my eyes
                 D        C        G
Just look in my eyes, my eyes, my eyes


A
What if we could put our lives on
C
Hold and meet somewhere inside of the world
E                                   A
I would meet you, would you meet me? (two, three, four)
A
On a park bench, on a skyscrape
C
On a mountain, oh yeah, whatever it takes
E                                  A
I would meet you, would you meet me? (two, three, four)

           A
God, I'm wired
          C
God, I'm wired
E                                A
I would meet you, would you meet me?
A  C   E                               A
       I would meet you, I would meet you (fade out)
ĂŽnscrie-te la newsletter


Join the ranks ! LIKE us on Facebook