Corrina Corrina Intro Tab - Bob Dylan




----------------------------------------------------------------------------
     Corrina, Corrina - Bob Dylan
----------------------------------------------------------------------------
Tabbed by: DiLN
Email: Dylan.Elliott@gmail.com

Okay, this is just the very beginning of the song. I will try and work out the rest of it.

There are two guitars, one higher in pitch than the other. 

Enjoy!


Guitar 1: Lower Pitch

e|-----------------|
B|-----------------|
G|--2--3--2--0-----|
D|--------------3--|
A|--3--5--3--1-----|
E|--------------1--|


Guitar 2: Higher Pitch

e|-----------------|
B|-----------------|
G|-----------------|
D|--5--6--5--3--1--|
A|-----------------|
E|--5--7--5--3--2--|
ĂŽnscrie-te la newsletter


Join the ranks ! LIKE us on Facebook