Dont Look Back Intro Tab - Boston






Song: Intro to "Don't Look Back"
Artist: Boston
Album: Don't Look Back

MAIN THEME:
----------------------------------------------------------------------|
-14h15--15p14-14-x-x-x-x-7--9h10p9------------------------------------|
-14-14--14-14-14-x-x-x-x-7--9--9-9------------------------------------|
-14h16--16p14-14-x-x-x-x-7--9--9-9------------------------------------|
----------------------------------------------------------------------|
----------------------------------------------------------------------|


--9b11--9b11--9b11r9--7--14--------------------------------------------------------|
----------------------------14h15p14h17p14h15p14h17p14h15p14-12b14r12-10-----------|
-------------------------------------------------------------------------11-9h11p9-|
-----------------------------------------------------------------------------------|
-----------------------------------------------------------------------------------|
-----------------------------------------------------------------------------------|


Sorry I didn't have time to figure out the rest of the song but I know
the pre-chorus appregio is something like single-srting-picking of a
D,G, and C chords. I'll try and figure out the rest of the song later.

John Yacovazzi
A.K.A. "The Guitar Wiz"






Like us on Facebook