Foreplay Long Time Tab - Boston






This song kicks a*s and is best played very loud and distorted.  The
only part I've figured out are the power chords in the opening part
of the song so have a rockin' time.

e |------------------------------------------------------------------|
b |------------------------------------------------------------------|
g |--3--5--6--5--3-----------5--6--3--8--10~---3--5--3--5--6-----6---|
d |--3--5--6--5--3--6--5--3--5--6--3--8--10~---3--5--3--5--6--6--6---|
a |--1--3--4--3--1--6--5--3--3--4--1--6---8~---1--3--1--3--4--6--4---|
E |-----------------4--3--1-----------------------------------4------|


e |------------------------------------------------------------------|
b |------------------------------------------------------------------|
g |-----6-----3--------6--8--10--3--5--6-----3--5--6-----3--5--6-----|
d |--6--6--6--3--3--4--6--8--10--3--5--6--6--3--5--6--6--3--5--6--6--|
a |--6--4--6--1--3--4--4--6---8--1--3--4--6--1--3--4--6--1--3--4--6--|
E |--4-----4-----1--2---------------------4-----------4-----------4--|
                                                      ^Go fast here

e |------------------------------------------------------------------|
b |------------------------------------------------------------------|
g |--3--5--6-----3--5--6--8--10~--3~~--------------------------------|
d |--3--5--6--6--3--5--6--8--10~--3~~--------------------------------|
a |--1--3--4--6--1--3--4--6---8~--1~~--------------------------------|
E |-----------4------------------------------------------------------|

Well, that's it.  Please notify me at terramorgan@myexcel.com if you
have additions to this song because I want to learn the rest of it.
Until then, keep rockin' and listening to Boston.

                                Burke Kenny






Like us on Facebook