Rock And Roll Band (ver2) Tab - Boston






heres rock & roll band

Verse

e-----------------------------------------------------|
B-----------------------------------------------------|
G--------------2-2-----------------------2-2----------|
D-2-2-----2----2-2----------2-2----4^4-0-2-2----------|
A-2-2----------0-0-3-4-0----2-2----------0-0-3-4-0----|
E-0-0-3-4--3-4----------3-4-0-0-3-4---------------3-4-|

----------------------------------------------------|
----------------------------------------------------|
-------------2-2-----------------------2-2----------|
2-2-----2----2-2----------2-2----4^4-0-2-2----------|
2-2----------0-0-3-4-0----2-2----------0-0-3-4-0----|
0-0-3-4--3-4----------3-4-0-0-3-4---------------3-4-|

-------------------------------------|
-------------------------------------|
-------------------------2-2-2-2-2-4-|
2-2-----2----4-4----4----2-2-2-2-2-4-|
2-2----------4-4-0-1-0-1-0-0-0-0-0-2-|
0-0-3-4--3-4-2-2---------------------|

Chorus

Chords
D Flat Minor / A / B / D Flat Minor / A / B
------------------------------------------------|
------------------------------------------------|
------------------------------------------------|
2-2-----2----4-4----4----2-2-4-4-2-2-----2----2-|
2-2----------4-4-0-1-0-1-2-2-4-4-2-2----------2-|
0-0-3-4--3-4-2-2---------0-0-2-2-0-0-3-4--3-4-0-|

repeat many many many times






Like us on Facebook