Smokin (ver2) Tab - Boston






Smokin' by Boston
(standard tuning)

b    bend
br   release from bend
h    hammer on
p    pull of
/    slide up
    slide down


|--------------|--------------------------------------|
|--------------|--------------------------------------|
|----2---------|--2-2-4-2--2-2-4-2--2-2-4-2--2-2-4----|
|-2--2---------|--0-0-0-0--0-0-0-0--0-0-0-0--0-0-0-2--|
|-0-----0h2h4--|-----------------------------------0--|
|--------------|--------------------------------------|


|-------------------------------|
|-------------------------------|
|-----------------------------7-|
|-9--9--7-7-7----9--9--7-7-7--5-|
|-7--7--5-5-5----7--7--5-5-5----|
|-------------------------------|


|-----------------------------------------------------------|--------|
|-----------------------------------------------------------|--------|
|-4b-br-4p2---------4b-br-4p2-------------------------------|--------|
|------------2-2---------------7-7----7-7--9-9--------------|-----7--|
|------------0-0---------------5-5----5-5--7-7--7h9p7----7--|--5--5--|
|-----------------------------------------------------9--5--|--3-----|

the guitar parts in the keyboard solo is pretty simple but nothing in it really repeats 
all so it would have taken forever to tab out the whole thing and I'm not that 
but I do have part of the end of it.

(2:18)
|----------------------|---------------------------------------------------|
|----------------------|---------------------------------------------------|
|----------------------|---------------------------------------------------|
|-2--2--2--2--2-2-2--2-|-7-------------------------------------------------|
|-0--0--0--0--0-0-0--0-|-5---------------------------------/5--3-------9---|
|----------------------|----6-5--3--5---6--5-3--5--3--1--0-------6--5--7-5-|
16 times

(3:34)
|-------------------------------|
|-------------------------------|
|-----------------------------7-|
|-9--9--7-7-7----9--9--7-7-7--5-|
|-7--7--5-5-5----7--7--5-5-5----|
|-------------------------------|


|--------------|--------------------------------------|
|--------------|--------------------------------------|
|----2---------|--2-2-4-2--2-2-4-2--2-2-4-2--2-2-4----|
|-2--2---------|--0-0-0-0--0-0-0-0--0-0-0-0--0-0-0-2--|
|-0-----0h2h4--|-----------------------------------0--|
|--------------|--------------------------------------|






Like us on Facebook