Anchors Away Tab - Bouncing Souls






---------------------------------------------------
             Anchors Away- Bouncing Souls
---------------------------------------------------
Tabber: Array45

Standard Tuning


---------------------------
--------------------------- 
---------------------------   x2
---------------------------  /
--11---7------11--14---7--- /
--9----5------9---12---5---/
 xl2  x12    x12  x4  x12

---------------------------
--------------------------- 
---------------------------   x2
---------------------------  /
--2---7---11---5----------- /
--0---9---9----7-----------/
  x5 x6   x6   x6

-----
-----
-----
-----
--2--
--0--


its not that hard to figure out how the song goes. just listen to it. ITS SO EASY!!

ĂŽnscrie-te la newsletter


Like us on Facebook