I Like Your Mom Bass Tab - Bouncing Souls






Band: The bouncing souls
Song: I like your mom
Album: The good, the bad and the argyle
Tabbed by: SK8BOB
E-Mail: sk8bob@geocities.com

play 4 times

G]--------------]
D]--------------]
A]-5> 3-------]
E]----------5--]

play 2 times

G]-------------]
D]-------------]
A]-5>-33-----]
E]--------------]

play 4 times

G]----------------------]
D]----------------------]
A] 5>-33-------------]
E]----------55---------]

play 2 times

G]-----------------------------------]
D]-----7--5-4---------2-3--55----]
A]-5>---------5--3>---------------]
E]------------------------------------]

Play 2 times

G]------------]
D]-2>-0>---]
A]------------]
E]------------]

Play 4 times

G]--------------]
D]-2>-00-----]
A]---------22--]
E]--------------]



ĂŽnscrie-te la newsletter


Like us on Facebook