Quick Chek Girl Bass Tab - Bouncing Souls






song: Quick chek girl
Band: Bouncing souls
Album: ...how to start a fight ( compilation)
tabbed by: Carlos Pino

  Verse
G|---------------------------------------------------------------------|
D|---------------------------------------------------------------------|
A|---5--5--5--5----------------3--3--3--3-------------------------
E|-----------------5--5--5--5-----------------3--3--3--3-----------|

  Chorus
G|----------------------------------------------------------------|
D|----------------------------------------------------------------|
A|---5--5--5--5------------------3--3--3--3-----------------|
E|-----------------5--5--5--5------------------3--3--3--3---|

ĂŽnscrie-te la newsletter


Like us on Facebook