Say Anything Tab - Bouncing Souls






why has no-one tabbed this yet?? it's so easy!!!Here Goes!!!


Intro
e|----------------| 
B|----------------| 
G|---11--11--x----| 
D|---11--11--x----| 
A|---9---9---x----| 
E|----------------| 

Verse
e|--------------------------------| 
B|--------------------------------| 
G|---11---------------------------| 
D|---11---------9----------11-----| 
A|---9----------9----------11-----| 
E|--------------7----------9------|

Chorus
e|----------------------------------| 
B|----------------------------------| 
G|-------------11-------------------| 
D|--9----11----11----9----9----11---| 
A|--9----11----9-----9----9----11---| 
E|--7----9-----------7----7----9----|

And Thats It! The Order is something like

Intro x8
Verse x2
Chorus x1
Verse x2
Intro x4
Verse x2
Chorus x1
Verse x4
Chorus x1 
End On F#

ĂŽnscrie-te la newsletter


Like us on Facebook