Undeniable Bass Tab - Bouncing Souls






This is an awesome souls song and everyone should learn how to play it.

INTRO
G:-----------------|
D:--4--------------|
A:55-5--222-0------|   X8
E:-----------------|

VERSE
G:----------------------------|
D:--4---5-4-2--00-4-0---------|
A:55-5---------------00-2-4---|  X4
E:----------------------------|

CHORUS (THIS GOES A LITTLE SLOWER THEN THE REST OF THE SONG. LISTEN TO IT AND YOU WILL 
WHAT I MEAN.)
G:----------------------------|
D:----------------------------|
A:55---222--------------------|
E:--------33---555------------|

INTRO  X4
VERSE  X4
CHORUS X4

INTRO  X2
VERSE  X4
CHORUS X8

ENJOY AND MAKE SURE YOU GO OUT AND GET SOME SOULS CDS!!!

ĂŽnscrie-te la newsletter


Like us on Facebook