Much More Beautiful Person Tab - Bowling For Soup






-----------------------------------------------------------------
Much More Beautiful Person - Bowling For Soup
-----------------------------------------------------------------
Tabbed by: Bair
Email: bair_morritt@hotmail.com
Tuning: Standard

Intro/ Main Riff:
e|---------------------------------------------------------------|
B|---------------------------------------------------------------|
G|-77--33------55------------------------------------------------|
D|-77--33--33--55---(X4)-----------------------------------------|
A|-55--11--33--33------------------------------------------------|
E|---------11----------------------------------------------------|

Verse:
e|---------------------------------------------------------------|
B|---------------------------------------------------------------|
G|-777777--555555--3333--5555--77--33------55--------------------|
D|-777777--555555--3333--5555--77--33--33--55--(X2)--------------|
A|-555555--333333--1111--3333--55--11--33--33--------------------|
E|-------------------------------------11------------------------|

Pre-Chorus:
e|---------------------------------------------------------------|
B|---------------------------------------------------------------|
G|-333333--777777--333333--555555--------------------------------|
D|-333333--777777--333333--555555--------------------------------|
A|-111111--555555--111111--333333--------------------------------|
E|---------------------------------------------------------------|

Chorus:
e|---------------------------------------------------------------|
B|---------------------------------------------------------------|
G|-------5555--------5555--7777--3333--7777--3333--555555--------|
D|-3333--5555--3333--5555--7777--3333--7777--3333--555555--------|
A|-3333--3333--3333--3333--5555--1111--5555--1111--333333--------|
E|-1111--------1111----------------------------------------------|

e|---------------------------------------------------------------|
B|---------------------------------------------------------------|
G|-77--33------55------------------------------------------------|
D|-77--33--33--55------------------------------------------------|
A|-55--11--33--33------------------------------------------------|
E|---------11----------------------------------------------------|

Interlude:
e|---------------------------------------------------------------|
B|---------------------------------------------------------------|
G|-3333--------5555--77--55--3333--------555555------------------|
D|-3333--3333--5555--77--55--3333--3333--555555---(X2)-----------|
A|-1111--3333--3333--55--33--1111--3333--333333------------------|
E|-------1111----------------------1111--------------------------|

Then - Chorus
     - Intro (X2)

This one I tabbed for Wojo26 since they asked for it...enjoy






Like us on Facebook