On And On (ver2) Tab - Bowling For Soup






On and On (About You)

Intro Riff
            2x
E|-------------------|-------------------------------------|
B|-----5-6-5-----5---|---8-6-5-5---------5-----------5-----|
G|-5h7-------7-7---5-|-5---------7-7-5-----7-5---7-7---7-5-|
D|-------------------|-----------------7-------5-----------|
A|-------------------|-------------------------------------|
E|-------------------|-------------------------------------|

Main Riff/Verse

E|-------|
B|-------|
G|-5-----|
D|-5-3-5-|
A|-3-3-5-|
E|---1-3-|

Chorus
E|-----------------|
B|-----------------|
G|-5---5---2---2---|
D|-5-5-5-5-2-3-2-5-|
A|-3-5-3-5-0-3-0-5-|
E|---3---3---1---3-|

Solo

E|-----------------------------------------------|
B|-5---5---5-6-5---------------5-6-5-------------|
G|---5---7-------7-5-4-5-0-5-7-------7-7-4-5-7-4-|
D|-----------------------------------------------|
A|-----------------------------------------------|
E|-----------------------------------------------|

Last Chorus

E|-----------------|
B|-----------------|
G|-7---7---4---4---|
D|-7-7-7-7-4-5-4-7-|
A|-5-7-5-7-2-5-2-7-|
E|---5---5---3---5-|






Like us on Facebook