On And On Intro Tab - Bowling For Soup






e--------------------------
B--------------------------
G-------9-10-9-------9-----    whole thing x2
D-10-12--------12-12---10--
A--------------------------
E--------------------------

e-----------------------------------------------------
B-----------------------------------------------------
G----12-10-9-9------------12--------------------------
D-10-----------12-10-9----------------12-12-14-12-10--
A----------------------12----12-14-12-----------------
E-----------------------------------------------------

ok. this is the intro solo thing. hope u enjoy it! and hopefully someone
clever can use this 2 work out the rest of the song! i'm a solos kinda gal
myself! enjoy :)






Like us on Facebook