Shut Up And Smile (ver2) Tab - Bowling For Soup






x- dead note
*- pickslide
/- slide up
- slide down


INTRO


|------11--9-------------|
|--12--------------------|
|-------------11---------|
|------------------------|     X4
|------------------------|
|------------------------|


VERSE


|---------------------------------------------------------------|
|---------------------------------------------------------------|
|---------------------------------------------------------------|
|-/00000000--44444444--99999999--2222222--4-0-------------------|    X3
|-/00000000--44444444--99999999--2222222--4-0-------------------|
|-/00000000--44444444--99999999--2222222--4-0-------------------|


CHORUS

|--------------------------------------------------------------------------------|
|--------------------------------------------------------------------------------|
|---777777777777777--7777777777777777--------------------------------------------|
|---777777777777777--7777777777777777--2222222222222222--5555555555555555--------|
|---555555555555555--5555555555555555--2222222222222222--5555555555555555--------|
|-----------------------------------------2222222222222222--5555555555555555-----|


|-------------------------|
|-------------------------|
|-------------------------|
|--7777777777777777-------|
|--7777777777777777-------|
|--7777777777777777-------|


VERSE- X1
CHORUS- X1


BREAKDOWN

|-------------------------------|
|-------------------------------|
|-------------------------------|
|--5555--7777--3333--5555-------|
|--5555--7777--3333--5555-------|
|--5555--7777--3333--5555-------|

REPEAT CHORUS AS MANY TIMES AS NEEDED






Like us on Facebook