Only The Young Tab - Brandon Flowers






Artist: Brandon Flowers
Song: Only The Young
I do not own any rights, im just making the tabs.
Problems? timoket@live.nl ;)
After 00:44 seconds, the guitar comes in
e|------13-----13---------------| 
B|14-14-----14---14----14---14--|
G|-------------------13---13----| 12x
D|------------------------------|
A|------------------------------|
E|------------------------------|
After 2 minutes
e|-------------------------------| 
B|-------------------------------|
G|-6---8---10--------------------|
D|-6---8---10-----8-----6--7--4--|
A|-4---6---8------8-----6--7--4--|
E|----------------6-----4--5--2--|
02:20
e|------13-----13---------------| 
B|14-14-----14---14----14---14--|
G|-------------------13---13----| 6x
D|------------------------------|
A|------------------------------|
E|------------------------------|
02:52
e|--------------------------------------------------------| 
B|--11--9--6--7---11--9---14--9-11---11--13--11---9-7---9-|
G|--------------------------------------------------------| 
D|--------------------------------------------------------|
A|--------------------------------------------------------|
E|--------------------------------------------------------|
e|-18-18-18-18-18---18-16---13-14-13---13-11--16--13--16-13-18| 
B|------------------------------------------------------------|
G|------------------------------------------------------------| 
D|------------------------------------------------------------|
A|------------------------------------------------------------|
E|------------------------------------------------------------|
e|---------------------| 
B|-11---4--2--1--2-----|
G|-----------------1-3-| 
D|---------------------|
A|---------------------|
E|---------------------|
e|------13-----13---------------| 
B|14-14-----14---14----14---14--|
G|-------------------13---13----| 4x
D|------------------------------|
A|------------------------------|
E|------------------------------| 
e|-16--16--16--16--16--14-13---16--16--16--16-20-| 
B|-----------------------------------------------|
G|-----------------------------------------------| 
D|-----------------------------------------------|
A|-----------------------------------------------|
E|-----------------------------------------------|






Like us on Facebook