A Lot Like Vegas Solo Tab - Bring Me the Horizon






D ||--------------------|--12--13--12--------|--12h-13h-12----------------|
B ||--15~---------------|--------------13~---|--------------10~---12--12--|
F#||--------------------|--------------------|--------------------12--12--|
B ||--------------------|--------------------|----------------------------|
F#||--------------------|--------------------|----------------------------|
B ||--------------------|--------------------|----------------------------|


                                                             
-----------------------|--12--13--12--------12--13--12------|
--12b------------------|--------------13~---------------10--|
--12b-------10----7----|------------------------------------|
-----------------------|------------------------------------|
-----------------------|------------------------------------|
-----------------------|------------------------------------|


                                                       
--------------------------|---------------------------|
--10~---12--12--12b-------|---------------------------|
--------12--12--12b-------|--10----7--------10--------|
--------------------------|---------------------------|
--------------------------|---------------------------|
--------------------------|---------------------------|


                                                                             
-------------------------|------------------------|-------------------------|
-------------------------|------------------------|-------------------------|
--7----10/---12----12b---|--10----7----10----7----|--10----7----12----12----|
-------------------------|------------------------|-------------------------|
-------------------------|------------------------|-------------------------|
-------------------------|------------------------|-------------------------|


                               
-----------------------------||
-----------------------------||
--12b---10--7----------------||
-----------------------------||
-----------------------------||
-----------------------------||


ĂŽnscrie-te la newsletter


Like us on Facebook